Peter Tosh

home > Peter Tosh

Johnny B. Goode Bass Tab

Peter Tosh

Difficulty: nolevelnolevel

by Acelot

tuner correct add songbook print version text version save to e-mail
chordsukulelecavacokeyboardtabbassdrumsharmonicsflute Guitar Pro
chords

Johnny B. Goode

Year: 2002 - Album: Complete Captured Live

(versão original:chuck berry)

  		
Intro and Chorus: 


G|-------------------------------------------------------------------| 
D|-------------------------------------------------------------------| 
A|-7-7-----7-7---7-7-----7-7-------7-7-----7-7--7-7-----7-7-/10-9----| 
E|-----7-7-----------7-7-----7-5-------7-7----------7-7-----------10-| 
B|-------------------------------------------------------------------| 

Verse: 

G|-------------------------------------------------| 
D|-------------------------------------------------| 
A|-----7------7------5-5-5------7------7-----------| 
E|-0-7----0-7----0-5--------0-7----0-7--------5-5--| 
B|----------------------------------------5-7------| (2x) 

Bridge: 

G|-----------------------------| 
D|-------5-4-----------5---5---| 
A|-7---7-----7-5-7---7---7---5-| 
E|---7-------------7-----------| 
B|-----------------------------| 

G|------------------------------------------------------| 
D|-----5-4-------------7---5--------5-4-----------------| 
A|-7-------7-5---7---7---7---5--7-------7-5---7---7-----| 
E|---7---------7---7--------------7---------7---7---3-5-| 
B|------------------------------------------------------| 
	  

Search Paypal
auto scroll beats size up size down change color hide chords drawings
tab show chords e-chords YouTube Clip e-chords hide all tabs e-chords go to top tab