Bob Marley

home > Bob Marley

One Drop Bass Tab

Bob Marley

Difficulty: BeginnerBeginner

by Gato%5Fobservador

tuner correct add songbook print version text version save to e-mail
chordsukulelecavacokeyboardtabbassdrumsharmonicsflute Guitar Pro
chords

One Drop

Year: 2001 - Album: Gold

  		Introdução: 
 
G|------------------------| 
D|------------------------| 
A|-----33-----3-5---------|  (2X) 
E|-3-5----3-5-------------| 
 
Essa é a introdução da música 
 
G|----------------------------------------------| 
D|------22--55--------2----------77--55--5------| 
A|---33------------33-----55--88--------5-5-3---| 
E|-3-----------5-5------5-----------------------| 
 
OBS: A música se encontra na seguência: C / Am / Dm / G 
 
Contribuição: Diego Bicca Alves ([email protected]) 
 
 

	  

Full key step upFull key step up
Half key step upHalf key step up
Half key step downHalf key step down
Full key step downFull key step down
Search Paypal
auto scroll beats size up size down change color hide chords drawings
tab show chords e-chords YouTube Clip e-chords hide all tabs e-chords go to top tab