Bob Marley

home > Bob Marley

One Drop Tab

Bob Marley

Difficulty: nolevelnolevel

by Gato%5Fobservador

tuner correct add songbook print version text version save to e-mail
chordsukulelecavacokeyboardtabbassdrumsharmonicsflute Guitar Pro
chords

One Drop

Year: 2001 - Album: Gold

  		Introdução: 
 
G|-------------------| 
D|-------------------| 
A|-----33-----3-5----|  (2X) 
E|-3-5----3-5--------| 
 
G|----------------------------| 
D|------22--55--------2-------| 
A|---33------------33---------| 
E|-3-----------5-5------------| 
 
G|----------------------------| 
D|----------77--5---5---------| 
A|---55--88-------5---5-3-----| 
E|-5--------------------------| 
 
A música inteira é só isso, segue nessa seguência. 
 
Contribuição: Diego Bicca Alves ([email protected])  

	  

Search Paypal
auto scroll beats size up size down change color hide chords drawings
tab show chords e-chords YouTube Clip e-chords hide all tabs e-chords go to top tab