Zelda

Zelda 5 Oot - End Credits

Zelda

tabs

by  ADALGOMES

save to print version add songbook text version e-mail correct tuner
chordsukulelecavacokeyboardtabbassdrumsharmonicaflute Guitar Pro
close

there isn't a video lesson for this song

chords

Zelda 5 Oot - End Credits

	  		E |---------------------------------------------------------------------------------------| 
B |---------------------------------------------------------------------------------------| 
G |----------------------0------------------------0------------------------0----0---------| 
D |-------4----4----4---2---------------4----4---2-------------------0--------------2-----| 
A |------5----5----5---3---------------5----5---3--------------2--3-----------------------| 
E |-----7----7----7-------------------7----7----------------------------------------------| 

E |---------------------------------------------------------------------------------------| 
B |------------------------------------------------------------------------0--1-----------| 
G |-----0--------------------------------------0----0-------------0--------------2--------| 
D |--------------4--2--4------------------0--------------2--------------------------------| 
A |---------------------------------2--3--------------------------------------------------| 
E |---------------------------------------------------------------------------------------| 

E |-------------------------------------------------------------------------5--------3----| 
B |---0--------3-------------------0--------3-----------------0--------3------------------| 
G |-----------------2--------0--2----------------2----------------------------------------| 
D |---------------------------------------------------------------------------------------| 
A |---------------------------------------------------------------------------------------| 
E |---------------------------------------------------------------------------------------| 

E |---------------------------------------------------------------------------------------| 
B |---3--------1--0---------------0--------3-------------------0--------3-----------------| 
G |------------------2--------------------------2--------0--2----------------2------------| 
D |---------------------------------------------------------------------------------------| 
A |---------------------------------------------------------------------------------------| 
E |---------------------------------------------------------------------------------------| 

E |---------------------5--------3----10--------------------------------------------------| 
B |-------0--------3------------------------------------------------3--------1--0--1--0---| 
G |---------------------------------------------------------------------------------------| 
D |---------------------------------------------------------------------------------------| 
A |---------------------------------------------------------------------------------------| 
E |---------------------------------------------------------------------------------------| 

E |-------------------------------------------------------------------------3-------------| 
B |------------1--------0-----0--------------3--------1--0--1--0-------1------------------| 
G |---0--------------------2-----2--------------------------------0-----------------------| 
D |---------------------------------2-----------------------------------------------------| 
A |---------------------------------------------------------------------------------------| 
E |---------------------------------------------------------------------------------------| 

E |---------------------------------------------------------------------------------------| 
B |-------------------------------------------------------------------------0-------------| 
G |-------------------------------0------------2---------------2------------1-------------| 
D |----------------------------2-----2---------4---------0--4-----4--0------0-------------| 
A |-------------------------3-----------3------5------------------------------------------| 
E |---------------------------------------------------------------------------------------| 

E |-----------------------------------------0----------------------------0----------------| 
B |---------0--------0----2--------2-------------0-----------0--2-------------0-----------| 
G |------0-----0-----0----0-------------------------------2-------------------------------| 
D |---0-----------0--0----2---------------------------------------------------------------| 
A |---------------------------------------------------------------------------------------| 
E |---------------------------------------------------------------------------------------| 

E |---------------0--------7--------5----0------------------------------------0-----------| 
B |------2----------------------------------------3--2--0------------2-------------0------| 
G |---------------------------------------------------------------------------------------| 
D |---------------------------------------------------------------------------------------| 
A |---------------------------------------------------------------------------------------| 
E |---------------------------------------------------------------------------------------| 

E |----------------------0--------------------------0----7----------5----12---------------| 
B |----------0--2-------------0------------2----------------------------------------------| 
G |-------2-------------------------------------------------------------------------------| 
D |---------------------------------------------------------------------------------------| 
A |---------------------------------------------------------------------------------------| 
E |---------------------------------------------------------------------------------------| 

E |-----------12--------10--9--10--9------------10--------9--7--9--7-----------12---------| 
B |-----------------------------------10------------------------------7-------------------| 
G |---------------------------------------------------------------------------------------| 
D |---------------------------------------------------------------------------------------| 
A |---------------------------------------------------------------------------------------| 
E |---------------------------------------------------------------------------------------| 

E |---10--9--10--9--------10----17--------------------------------------------------------| 
B |-------------------10------------------------------------------------------------------| 
G |---------------------------------------------------------------------------------------| 
D |---------------------------------------------------------------------------------------| 
A |---------------------------------------------------------------------------------------| 
E |---------------------------------------------------------------------------------------| 

E |----------------------------------0----------------------------------------------------| 
B |---------0----------0----------0-----3----0--1--0--------------------------------------| 
G |------2----------2----------2----------------------0-------------------0---------------| 
D |---3----------3----------3----------------------------2----------0--2-----2------------| 
A |---------------------------------------------------------------------------------------| 
E |---------------------------------------------------------------------------------------| 
											 | 
E |----------------------------------0-------------0--------------------------------------| 
B |---------0----------0----------0-----3----0--1-----0-------------0---------------------| 
G |------2----------2----------2-------------------------0-------------0------------------| 
D |---3----------3----------3---------------------------------------------0--2------------| 
A |---------------------------------------------------------------------------------------| 
E |---------------------------------------------------------------------------------------| 
											 | 
E |------------------------------------------------------------------------0--------------| 
B |--------------------0----1--0--------------------------------0----1--3-----------------| 
G |--------------0--2-------------------------------------0--2----------------------------| (2x) 
D |---0--2--3---------------------2------------0--2--3------------------------------------| 
A |---------------------------------------------------------------------------------------| 
E |---------------------------------------------------------------------------------------| 
    											 | 
E |---------------------------------------------------------------------------------------| 
B |--------------------0----1--0---------------------------------------0-----1--0--3--1---| 
G |--------------0--2--------------------------------------0-----2--0-----2---------------| 
D |---0--2--3---------------------2------------0-----3--2-----3---------------------------| 
A |-----------------------------------------------3---------------------------------------| 
E |---------------------------------------------------------------------------------------| 
											 | 
E |---0-1----0----------------------------------------------------------------------------| 
B |--------3------------------------------------------------------------------------------| 
G |---------------------------------------------------------------------------------------| 
D |---------------------------------------------------------------------------------------| 
A |-------------2--2--2-----2--2--2-----2--2--2--2----------------------------------------| 
E |----------0--5--5--5--0--5--5--5--0--4--4--4--4----0-----------------------------------| 

E |---------------------------------------------------------------------------------------| 
B |---------------------------------3----3----0----0--------------------------------------| 
G |---2----2----4----4----2----2----2----2----0----0----0----0--------------------0-------| 
D |---3----3----3----3----3----3------------------------2----2----2----2----0--2-----2----| 
A |---------------------------------------------------------------------------------------| 
E |---------------------------------------------------------------------------------------| 

E |-------------------------------------------0----0--------------------------------------| 
B |---------------------------------3----3----0----0----0----0----------------------------| 
G |---2----2----4----4----2----2----2----2--------------0----0----0----0------------------| 
D |---3----3----3----3----3----3----------------------------------2----2----2----2--------| 
A |---------------------------------------------------------------------------------------| 
E |---------------------------------------------------------------------------------------| 

E |---------------------------------------------------------------------------------------| 
B |---------------------------------------------------------------------------------------| 
G |---------------------------------------------------------------------------------------| 
D |---3-----------------2-----------------3-----------------2----------------3------2-----| 
A |---3--------2--------2--------0--------3--------2--------3----------------5------3-----| 
E |---------------------------------------------------------------------------------------| 

E |---------------------------------------------------------------------------------------| 
B |-----------------------------------------------------------0---------------------------| 
G |---0----------------0--2--------1---------------------2-----------------------0--------| 
D |---0----3----3-----------------------------------3-----------------------2-------------| 
A |--------5--------------3--------2-----------------------------------5------------------| 
E |---------------------------------------------------------------------------------------| 

E |----------------------20-18-------------20-18----22-20----20-18-------------20-18------| 
B |-------------0--------------17-------17-------17-------19-------17-------17-------17---| 
G |--------2----------------------17-19-------------------------------17-19---------------| 
D |---3-----------------------------------------------------------------------------------| 
A |---------------------------------------------------------------------------------------| 
E |---------------------------------------------------------------------------------------| 

E |---22-20-------------------------------18----------------------------------18----------| 
B |---------19-21----------------21----------19-15-21----------------21----------19-15----| 
G |---------------19-17-15-17-19----19-17-------------19-17-15-17-19----19-17-------------| 
D |---------------------------------------------------------------------------------------| 
A |---------------------------------------------------------------------------------------| 
E |---------------------------------------------------------------------------------------| 

E |-----------------------5-7-8-10--------8--7--8--7-----------8--------5--7--5-----------| 
B |------0--1--3--5--7--8-----------------------------8--------------------------5--------| 
G |---2-----------------------------------------------------------------------------------| 
D |---------------------------------------------------------------------------------------| 
A |---------------------------------------------------------------------------------------| 
E |---------------------------------------------------------------------------------------| 

E |---10--------8--7--8--7-------8----15--------------------------------------------------| 
B |-------------------------8-------------------------------------------------------------| 
G |---------------------------------------------------------------------------------------| 
D |---------------------------------------------------------3----5------------------------| 
A |---------------------------------------------------------3----2------------------------| 
E |---------------------------------------------------------------------------------------| 

E |-------------------------------------------------------------------------5--------3----| 
B |---0--------3-------------------0--------3-----------------0--------3------------------| 
G |-----------------2--------0--2----------------2----------------------------------------| 
D |---------------------------------------------------------------------------------------| 
A |---------------------------------------------------------------------------------------| 
E |---------------------------------------------------------------------------------------| 

E |--------------------------------7--------10---------------------7--------10------------| 
B |---3---------1--0------------------------------10--------8--10-----------------10------| 
G |-------------------2-------------------------------------------------------------------| 
D |---------------------------------------------------------------------------------------| 
A |---------------------------------------------------------------------------------------| 
E |---------------------------------------------------------------------------------------| 

E |---7--------10----17--------15-----------------------------------------0--1-----0--1---| 
B |-----------------------------------------------------0--1-----0--1--3--------3---------| 
G |--------------------------------------0--------0--2--------2---------------------------| 
D |-----------------------------------------2--3------------------------------------------| 
A |---------------------------------------------------------------------------------------| 
E |---------------------------------------------------------------------------------------| 

E |---3--5--7-----5--7--8--10--12----------12--13--15--17--15--17--15--17--15--17--15-----| 
B |------------8-------------------13--15-------------------------------------------------| 
G |---------------------------------------------------------------------------------------| 
D |---------------------------------------------------------------------------------------| 
A |---------------------------------------------------------------------------------------| 
E |---------------------------------------------------------------------------------------| 

E |---17--15--17--15--17--15--17--15------8----------------10-----------------------------| 
B |---------------------------------------5----------------10----------------0------------| 
G |---------------------------------------5----------------11----------------0----2-------| 
D |--------------------------------------------------------------------------0----3-------| 
A |-------------------------------------------------------------------------------3-------| 
E |---------------------------------------------------------------------------------------| 

E |---------------------------------------------------------------------------------------| 
B |---0-------------0---------------------------------------------------------------------| 
G |---0----2--------0----2----0-----------------------------------------------------------| 
D |---0----3--------0----3----1--------3--------2-----------------------------------------| 
A |--------3-------------3----1--------4--------3-----------------------------------------| 
E |------------------------------------4--------3-----------------------------------------| 

E |---3-----------------------3------------5------------3------------5--------------------| 
B |---------------------------5------------7------------5------------7--------------------| 
G |---------------------------------------------------------------------------------------| 
D |---------------------------------------------------------------------------------------| 
A |---------------------------------------------------------------------------------------| 
E |---------------------------------------------------------------------------------------| 

E |-------------------------------------------------------------------------5--------3----| 
B |---0--------3-------------------0--------3-----------------0--------3------------------| 
G |-----------------2--------0--2----------------2----------------------------------------| 
D |---------------------------------------------------------------------------------------| 
A |---------------------------------------------------------------------------------------| 
E |---------------------------------------------------------------------------------------| 

E |---------------------------------------------------------------------------------------| 
B |---3--------1--0----------0--------3-------------------0--------3-----------------0----| 
G |------------------2---------------------2--------0--2----------------2-----------------| 
D |---------------------------------------------------------------------------------------| 
A |---------------------------------------------------------------------------------------| 
E |---------------------------------------------------------------------------------------| 

E |--------5--------3----8------------10--------------------------------------------------| 
B |---3-------------------------------7---------------------------------------------------| 
G |---------------------------------------------------------------------------------------| 
D |------------------------------------------0--2--4--------------------------------------| 
A |---------------------------------------0-----------------------------------------------| 
E |---------------------------------------------------------------------------------------| 
		  

auto scroll beats size up size down change color hide chords drawings
tab show chords e-chords YouTube Clip e-chords hide all tabs e-chords go to top tab

share