Zelda

Zelda 5 Oot - A Storm In The Desert

Zelda

tabs

by  ADALGOMES

save to print version add songbook text version e-mail correct tuner
chordsukulelecavacokeyboardtabbassdrumsharmonicaflute Guitar Pro
close

there isn't a video lesson for this song

chords

Zelda 5 Oot - A Storm In The Desert

	  		(capotraste na quarta casa) 
E |---------------|---------------|---------------|----------------| 
B |---------------|---------------|---------------|--5------4------| 
G |---------------|---------------|---------------|----------------| 
D |--6------------|--4------------|--2------------|--2------1------| 
A |--6------------|--4------------|--2------------|----------------| 
E |--4------------|--2------------|--0------------|----------------| 

|---------4--------|--------4--------|--6------7--6--7--|--6--------------| 
|------------------|-----------------|------------------|-----7-----------| 
|------4-----------|--1--4-----------|------------------|--------8--------| 
|---6--------------|-----------------|------------------|-----------------| 
|------------------|-----------------|------------------|--6--------------| 
|---4--------------|--0--------------|--2---------------|-----------------| 

|------------------|---------------|------------7--6--|--2----------------|| 
|--4------------2--|--4------------|--4---------------|-----4-------------|| 
|-------1----4-----|---------------|-------1----------|--------3----4-----|| 
|------------------|---------------|------------------|--4----------------|| 
|------------------|---------------|------------------|-------------------|| 
|--0---------------|--4------------|--0---------------|-------------------|| 

|----------------|--4--------------|---------------||--------------------| 
|--4--------4----|-----------------|---------------||--------4-----------| 
|----------------|-----------------|---------------||---1-------------1--| 
|----------------|-----------------|---------------||--------------1-----| 
|----------------|-----------------|---------------||-----------2--------| 
|--4-------------|--4----2----6----|--4------------||--------4-----------| 

|-------2----------|-------------4----|-------------4----|-------------------| 
|--2----------2----|----------0-------|----------0-------|-------4-----------| 
|------------------|--3----1----------|-------1----------|--1----------------| 
|------------------|------------------|------------------|-------------2--4--| 
|----------4-------|------------------|------------------|----------2--------| 
|-------2----------|-------4----------|-------2----------|-------0-----------| 

|-------2--4--6----|--2----------4----|-------2-----------|--2-----------------|| 
|--2---------------|----------0--4----|-------------4-----|-------2------------|| 
|------------------|-------1----------|-------------------|--------------------|| 
|------------------|------------------|-------------1--2--|-------------2--4---|| 
|------------------|------------------|----------2--------|----------2---------|| 
|-------2----------|-------4----------|-------0-----------|-------0------------|| 

|--2----------4----|---------------|--------------------------| 
|----------0--4----|---------------|--------0--2--4-----------| 
|-------1----------|---------------|--1--3-----------------1--| 
|------------------|---------------|--------------------1-----| 
|------------------|---------------|--------2--------2--------| 
|-------4----------|---------------|--4-----------4-----------| 

|-------2----------|-------------4-----|--------------4----|-------------------| 
|--2----------2----|----------0--------|-----------0-------|-------4-----------| 
|------------------|--3----1-----1-----|--4--3--1----------|--1----------------| 
|------------------|----------------4--|-----------1-------|-------------2--4--| 
|----------4-------|----------2--------|--------------2----|----------2--------| 
|-------2----------|-------4-----------|--------2----------|-------0-----------| 

|-------2--4--6----|--2----------------|----------------|---------------| 
|--2---------------|-------4-----------|--0-------------|---------------| 
|------------------|-------------------|-------3--------|---------------| 
|------------------|-------------1--2--|-------1--------|---------------| 
|------------------|----------2--------|----------------|---------------| 
|-------2----------|-------0-----------|----------------|---------------| 

|---------------------|--------------------------|--------------0-----0-----| 
|-------4----0--------|--------------4-----4-----|--2-----2--------2-----2--| 
|--1------------------|--4-----4--------4-----4--|-----3-----3--------------| 
|---------------------|-----6-----6--------------|--------------------------| 
|---------------------|--------------------------|--------------------------| 
|--4------------------|--4-----------4-----------|--2-----------2-----------| 

|--------------------------|--------0-----------------|-------------------------| 
|--------4-----------5-----|--2--------2--------------|-------------------------| 
|--4--------4--6--------6--|-----3--------4-----3-----|-------------------------| 
|-----6-----------8--------|-----------------6-----4--|--6-------------------2--| 
|--------------------------|--------------------------|-------------2--4--6-----| 
|--4-----------6-----------|--2-----------6-----------|--4----4--6--------------| 


|--------------------------|--------------0-----0-----| 
|--------------4-----4-----|--2-----2--------2-----2--| 
|--4-----4--------4-----4--|-----3-----3--------------| 
|-----6-----6--------------|--------------2-----------| 
|--------------6-----------|--------------------------| 
|--4-----------------------|--2-----------------------| 

|--------------------------|--------------0-----0-----|-----------------------| 
|--------------4-----4-----|--2-----2--------2-----2--|--------------------4--| 
|--4-----4--------4-----4--|-----3-----3--------------|-----------4--3--------| 
|-----6-----6--------------|--------------------------|-----------------6-----| 
|--------------6-----------|--------------------------|-----------2-----------| 
|--4-----------------------|--2-----------2-----------|-----------------4-----| 

|---------------------|-------------------||------------------------| 
|---------------------|-------------------||--------------4---------| 
|--4--3---------------|-------------------||---1----4--1-------4----| 
|--------6------------|-------------------||------------------------| 
|--2------------------|-------------------||--------------1---------| 
|--------4------------|-------------------||---4--------------------| 

|--------------------|-----------4--------2----|-----------4--------2-----|| 
|--------------------|-----0--4--------2-------|-----0--4--------2--------|| 
|--1-----------------|--1-----------3----------|--1-----------3-----------|| 
|--------------------|-------------------------|--------------------------|| 
|--2--------1--------|--------------1----------|--2-----------1-----------|| 
|--------------------|--4----------------------|--------------------------|| 

|-----------------------|--------4--------|--------4--------|--6------7--6--7--| 
|-------------4---------|-----------------|-----------------|------------------| 
|--1----4--1-------4----|-----4-----------|--1--4-----------|------------------| 
|-------------1---------|--6--------------|-----------------|------------------| 
|-------2----------2----|-----------------|-----------------|------------------| 
|--4-------4------------|--4--------------|--0--------------|--2---------------| 

|--6--------------|--------4--------|--------4--------|--6------7--6--7--| 
|-----7-----------|-----------------|-----------------|------------------| 
|--------8--------|-----4-----------|--1--4-----------|------------------| 
|-----------------|--6--------------|-----------------|------------------| 
|--6--------------|-----------------|-----------------|------------------| 
|-----------------|--4--------------|--0--------------|--2---------------| 

|--6--------------|------------------|----------------|--4--------------| 
|-----7-----------|--4------------2--|--4--------4----|-----------------| 
|--------8--------|-------1----4-----|----------------|-----------------| 
|-----------------|------------------|----------------|-----------------| 
|--6--------------|------------------|----------------|-----------------| 
|-----------------|--0---------------|--4-------------|--4----2----6----| 

|---------------|-----------------------|-----------------4----| 
|---------------|-------------4---------|------------4---------| 
|---------------|--1----4--1-------4----|--1----4--------------| 
|---------------|-------------1---------|----------------------| 
|---------------|-------2----------2----|----------------------| 
|--4------------|--4-------4------------|--4-------------------| 

|--6----------------|| 
|-------------------|| 
|-------------------|| 
|-------------------|| 
|-------------------|| 
|-------------------|| 
		  

auto scroll beats size up size down change color hide chords drawings
tab show chords e-chords YouTube Clip e-chords hide all tabs e-chords go to top tab

share