Zelda

Oracle Of Ages - Lynna City (presente)

Zelda

tabs

by  EDUCASTILHO

save to print version add songbook text version e-mail correct tuner
chordsukulelecavacokeyboardtabbassdrumsharmonicaflute Guitar Pro
close

there isn't a video lesson for this song

chords

Oracle Of Ages - Lynna City (presente)

	  		 (viol„o 1) 
E |--------8------------7-8-7----------------------------| 
B |---8---------10-------------10--8-------------8-------| 
G |-----------------------------------10--9--10----------| 
D |------------------------------------------------------| 
A |------------------------------------------------------| 
E |------------------------------------------------------| 

E |-------12--12--------10-8-7---------------------------| 
B |---10-----------------------10-8--10--8--10--8--------| 
G |--------------------------------------------------10--| 
D |------------------------------------------------------| 
A |------------------------------------------------------| 
E |------------------------------------------------------| 

E |------------------7---------------------8-------------| 
B |---8--10-----------------10--8-------8---------10-8---| 
G |------------10--------------------9-------------------| 
D |------------------------------------------------------| 
A |------------------------------------------------------| 
E |------------------------------------------------------| 

E |-------------7--8--7--8------10-------7---------------| 
B |---7--8--10--------------10--------8----10-8------8---| 
G |------------------------------------------------------| 
D |------------------------------------------------------| 
A |------------------------------------------------------| 
E |------------------------------------------------------| 

 (viol„o 2) 
E |------------------------------------------------------| 
B |------------------------------------------------------| 
G |-----------------------0------------------------------| 
D |---2---------3----0-------3--2--0-----0--2----3----0--| 
A |--------3--------------------------3------------------| 
E |------------------------------------------------------| 

E |------------------------------------------------------| 
B |------------------------------------------------------| 
G |-------------------------0--------------------0-------| 
D |---4----0-------------0-----0-------3----0---------3--| 
A |-------------2--3--2-----------2----------------------| 
E |------------------------------------------------------| 

E |------------------------------------------------------| 
B |------------------------------------------------------| 
G |--------------------------------------------------0---| 
D |---2----0-----------------0--0-------0--0-------------| 
A |-------------3----2----0----------3----------2--------| 
E |------------------------------------------------------| 

E |------------------------------------------------------| 
B |------------------------------------------------------| 
G |---0--------------------------------------------------| 
D |------3--2--0-----------------------------------------| 
A |------------------------------------------------------| 
E |------------------------------------------------------| 
		  

auto scroll beats size up size down change color hide chords drawings
tab show chords e-chords YouTube Clip e-chords hide all tabs e-chords go to top tab

share