Zelda

Oracle Of Seasons - Windmill

Zelda

tabs

by  VICTBORGES

save to print version add songbook text version e-mail correct tuner
chordsukulelecavacokeyboardtabbassdrumsharmonicaflute Guitar Pro
close

there isn't a video lesson for this song

chords

Oracle Of Seasons - Windmill

	  		 (viol„o 1) 
|-----------------------|-12---13--12-13-12-------| 
|------15-------15------|-------------------13----| 
|----14-------14--------|----------------------14-| 
|--12--------12---------|-------------------------| 
|-----------------------|-------------------------| 
|-----------------------|-------------------------| 

|----------------------|--------------------------| 
|----------------------|--------------------------| 
|--14----------14------|--14----------------------| 
|-----12--14-15--------|------12--14-15-14--------| 
|----------------------|--------------------------| 
|----------------------|--------------------------| 

|-----------------------|-12---13--12-13-12-------| 
|------15-------15------|-------------------13----| 
|----14-------14--------|----------------------14-| 
|--12--------12---------|-------------------------| 
|-----------------------|-------------------------| 
|-----------------------|-------------------------| 

|-----------------------|-------------------------| 
|-----------------------|-------------------------| 
|--14-----------14---14-|-------------------------| 
|------12--14-15--------|--12---------------------| 
|-----------------------|-------------------------| 
|-----------------------|-------------------------| 

 (viol„o 2) 
|-----------------------|----------------------| 
|-----------------------|----------------------| 
|-----------------------|----------------------| 
|-----7--7----7--9------|-----10-10----7--9----| 
|--5--------5-----------|--5---------5---------| 
|-----------------------|----------------------| 

|-----------------------|----------------------| 
|-----------------------|----------------------| 
|-----------------------|----------------------| 
|-----7--7-----9--------|-----10-10-----9------| 
|-----------------------|----------------------| 
|-----------------------|----------------------| 

|-----------------------|----------------------| 
|-----------------------|----------------------| 
|-----------------------|----------------------| 
|-----7--7-------7------|-----7--7-------7-----| 
|-----------------------|----------------------| 
|--6--------8-----------|--6---------5---------| 

|-----------------------|----------------------| 
|-----------------------|----------------------| 
|-----------------------|----------------------| 
|-----7--7-----9--------|-----10-10-----9------| 
|-----------------------|----------------------| 
|-----------------------|----------------------| 

|-------------------------|-------------------------|------------------------| 
|-------------------------|-------------------------|------------------------| 
|-------------------------|-------------------------|------------------------| 
|-----7--7-------7--------|-----7--7----7--9--------|-----10-10----7--9------| 
|-------------------------|--5--------5-------------|--5---------5-----------| 
|--6--------8-------------|-------------------------|------------------------| 
		  

auto scroll beats size up size down change color hide chords drawings
tab show chords e-chords YouTube Clip e-chords hide all tabs e-chords go to top tab

share