Zelda

5 Oot - Kakariko Village

Zelda

tabs

by  ALESBARRAS

save to print version add songbook text version e-mail correct tuner
chordsukulelecavacokeyboardtabbassdrumsharmonicaflute Guitar Pro
close

there isn't a video lesson for this song

chords

5 Oot - Kakariko Village

	  		(base) 

1 ? 3x 
2 ? 1x 
1 ? 1x 
3 ? 1x 
4 ? 1x 

(tab. 1) 
E |-------------|-------------|-------1-----|-------------| 
B |-------3-----|-------------|-------------|-----1-4-1---| 
G |-----3---3---|-----0-3-0---|---0-3---3-0-|-------------| 
D |---3-------3-|---0-------0-|-------------|---3-------3-| 
A |-1-----------|-------------|-3-----------|-------------| 
E |-------------|-3-----------|-------------|-1-----------| 

(tab. 2) 
E |-----------|-------------|-------------|-------------| 
B |-----------|-------------|-------------|-------------| 
G |-0-3-0-3-0-|-----2---2---|-----3---3---|-----3---3---| 
D |-----------|---3---3---3-|---3---3---3-|---0---0---0-| 
A |-----------|-------------|-1-----------|-------------| 
E |-----------|-1-----------|-------------|-3-----------| 

E |-------------|-------------|-------------|-------------| 
B |-------------|-------------|-------------|-------------| 
G |---0-3-0-3-0-|-----2---2---|-----3---3---|-----3---3---| 
D |-------------|-------------|---3---3---3-|---0---0---0-| 
A |-3-----------|---3---3---3-|-1-----------|-------------| 
E |-------------|-1-----------|-------------|-3-----------| 

(tab. 3) 
E |-------------|-----------|-----------|-----------| 
B |-------------|-----------|-----------|-----------| 
G |---0-3-0-3-0-|-0-3-0-3-0-|---3---3---|---3---3---| 
D |-------------|-----------|-3---3---3-|-3---3---3-| 
A |-------------|-----------|-----------|-----------| 
E |-------------|-----------|-----------|-----------| 

E |-------------|-------------|-------------|-------------| 
B |-------------|-------------|-------------|-------------| 
G |---0-3-0-3-0-|-----2---2---|-----3---3---|-----1---1---| 
D |-------------|-------------|---3---3---3-|---3---3---3-| 
A |-3-----------|---3---3---3-|-1-----------|-------------| 
E |-------------|-1-----------|-------------|-4-----------| 

(tab. 4) 
E |-------------|-----------|-----------|-----------| 
B |-------------|-----------|-----------|-----------| 
G |---0-3-0-3-0-|-0-3-0-3-0-|---3---3---|---3---3---| 
D |-------------|-----------|-3---3---3-|-3---3---3-| 
A |-------------|-----------|-----------|-----------| 
E |-------------|-----------|-----------|-----------| 

E |-------------|-------------|-------------| 
B |-------------|-------------|-------------| 
G |---0-3-0-3-0-|-----2---2---|-----3---3---| 
D |-------------|-------------|---3---3---3-| 
A |-3-----------|---3---3---3-|-1-----------| 
E |-------------|-1-----------|-------------| 

(solo) 
E |-----6-------10----6--13------------------10--------13-| 
B |--6-------6---------------------11--------------11-----| 
G |----------------------------10--------10---------------| 
D |-------------------------------------------------------| 
A |-------------------------------------------------------| 
E |-------------------------------------------------------| 

E |-13--15--------15--13----10----10----10----8--6--||2 
B |-------------------------------------------------||v 
G |----------14-------------------------------------||e 
D |-------------------------------------------------||z 
A |-------------------------------------------------||e 
E |-------------------------------------------------||s 

E |--6--6----5--8--6--------------------1-----| 
B |---------------------6---4---3--4-------3--| 
G |-------------------------------------------| 
D |-------------------------------------------| 
A |-------------------------------------------| 
E |-------------------------------------------| 

E |--6--6----5--8--6-------13----11----10----8--6-| 
B |---------------------6-------------------------| 
G |-----------------------------------------------| 
D |-----------------------------------------------| 
A |-----------------------------------------------| 
E |-----------------------------------------------| 
		  

auto scroll beats size up size down change color hide chords drawings
tab show chords e-chords YouTube Clip e-chords hide all tabs e-chords go to top tab

share