Young The Giant

Apartments

Young The Giant

tabs

by  MAR-GOBBO

save to print version add songbook text version e-mail correct tuner
chordsukulelecavacokeyboardtabbassdrumsharmonicaflute Guitar Pro
close

there isn't a video lesson for this song

chords

Apartments

	  		
Intro/Verse: 
e|----------------------------------------------------------------------------| 
B|------------------------7---5--5--5--5--5-----7-----------------7-----------| 
G|--4--4--4--4--4---------6---4--4--4--4--4-----7----6-6-6-6-6----6---4-------| 
D|--4--4--4--4--4---------7---5--5--5--5--5-----7----7-7-7-7-7----7---4-------| 
A|--5--5--5--5--5-------------------------------9----7-7-7-7-7--------5-------| 
E|---------------------------------------------------5-5-5-5-5----------------| 
Repeat intro x3 
Then guitar plays this 
Verse Riff: 
e|---------------------------------------------------------------------------| 
B|------------7-7---------------8-8-------------------- 12-------------------| 
G|------------6-6---------------7-7---------------6-----11-------------------| 
D|------------7-7---------------9-9---------------7-----12-------------------| 
A|-2--0--2/5--5-5---2--0--2/7---7-7---2--0--2--2--7--/--x--------------------| 
E|------------------------------------------------5-----10-------------------| 

Pre Chorus- Listen to song for rhythm 
e|--------------------------------------------------------------------------| 
B|---7----------------------------------------------------------------------| 
G|---6--6-------------------------------------------------------------------| 
D|---7--7----x3-------------------------------------------------------------| 
A|------7-------------------------------------------------------------------| 
E|------5-------------------------------------------------------------------| 
Chorus 
e|---------------3-----3----------------------------------------------------| 
B|--12-----5-----3-----3----------------------------------------------------| 
G|--11-----5-----4-----0----------------------------------------------------| 
D|--12-x5--4-x5--5-x5--0---x5-----------------------------------------------| 
A|--x------x-----5-----2----------------------------------------------------| 
E|--10-----5-----3-----3----------------------------------------------------| 
Guitar Solo after Chorus 
e|--------------------------------------------------------------------------| 
B|--------------------------------------------------------------------------| 
G|---11--9--6----11--9--6--9--11---------14----14-14-12-11------------------| 
D|---0---0--0----0---0--0--0--0-------12----12------------------------------| 
A|--------------------------------------------------------------------------| 
E|--------------------------------------------------------------------------| 
Repeat Verse, and Chorus 
Later in the background guitar plays a higher sounding chorus 
e|---14------14-------------------------------------------------------------| 
B|---15--x5--13-x5--12------8-----------------------------------------------| 
G|---14------14-----12-x5---7-x5--------------------------------------------| 
D|------------------12------5-----------------------------------------------| 
A|--------------------------------------------------------------------------| 
E|--------------------------------------------------------------------------| 
Repeat verse riff, then play the intro 
e|--------------------------------------------------------------------------| 
B|---------------7--5-5-5-5-5---7---------------------------12--------------| 
G|--4-4-4-4-4----6--4-4-4-4-4---7---6-6-6-6-6---------------11--------------| 
D|--4-4-4-4-4----7--5-5-5-5-5---7---7-7-7-7-7-----End on:---12--------------| 
A|--5-5-5-5-5-------------------9---7-7-7-7-7---------------x---------------| 
E|----------------------------------5-5-5-5-5---------------10--------------| 


 
		  

See also:

tabs Audioslave - Cochise tabs Red Hot Chili Peppers - Can't Stop (ver. 2) tabs Red Hot Chili Peppers - Suck My Kiss tabs Red Hot Chili Peppers - Californication tabs Incubus - Talk show on mute tabs Paramore - Misery Business (tablaturas)
e-chords

Other versions:

tabs Young The Giant - Apartments
auto scroll beats size up size down change color hide chords drawings
tab show chords e-chords YouTube Clip e-chords hide all tabs e-chords go to top tab

share with facebook