You Me At Six

Time Is Money

You Me At Six

tabs Intermediate intermediate

by  IRONPOWER4EVER

save to print version add songbook text version e-mail correct tuner
chordsukulelecavacokeyboardtabbassdrumsharmonicaflute Guitar Pro
close

there isn't a video lesson for this song

chords

Time Is Money

	  		
INTRO 1 

(0:00 - 0:11) 
E|---------------------------| 
B|---------------------------| 
G|---------------------------| 
D|---------------------------|  (4x) 
A|-------------------6-------| 
D|-1-3-1-3-3---3-6-3---1-1-1-| 

(0:11 - 0:22) 
E|---------------------------------| 
B|---------------------------------| 
G|---------------------------------| 
D|-1-3-1-3-3---3-----3-----1-1-1---|  (4x) 
A|-1-3-1-3-3---3-----3--6--1-1-1---| 
D|-1-3-1-3-3---3--6--3-----1-1-1---| 


VERSE 

(0:23 - 0:33) 
E|-------------------| 
B|-------------------| 
G|-------------------| 
D|-1h3p1-6--3\-------|   (4x) 
A|-1h3p1-6--3\-------| 
D|-1h3p1-6--3\-------| 

(0:33 - 0:44) 
E|----------------------------------| 
B|----------------------------------| 
G|----------------------------------| 
D|-1h3p1-6--3--3-3-3--3-3-3---------|  (4x) 
A|-1h3p1-6--3--3-3-3--3-3-3---------| 
D|-1h3p1-6--3--3-3-3--3-3-3---------| 
               . .    . . 

CHORUS 

(0:45 - 0:56) 
E|-------------------------| 
B|-------------------------| 
G|-------------------------| 
D|-3------11-------13------| 
A|-3-x16--11--x15--13--x3--| 
D|-3------11-------13------| 

(0:56 - 1:07) 
E|------------------------| 
B|------------------------| 
G|------------------------| 
D|-3------11-------8------| 
A|-3-x16--11--x15--8--x2--| 
D|-3------11-------8------| 


INTRO 2 (1:07 - 1:11) 

E|--------------------------------------| 
B|--------------------------------------| 
G|--------------------------------------| 
D|--------------------------------------| 
A|--------6--------------------------6--| 
D|--3-6-3---1-1-1---1-3-1-3-3--3-6-3----| 


Repeat Verse x1 
Then, play the second chorus, the last chords are different 

CHORUS 

(1:34 - 1:45) 
E|-------------------------| 
B|-------------------------| 
G|-------------------------| 
D|-3------11-------13------| 
A|-3-x16--11--x15--13--x3--| 
D|-3------11-------13------| 

(1:45 - 1:56) 
E|--------------------| 
B|--------------------| 
G|--------------------| 
D|-3------11----------| 
A|-3-x16--11--x18-----| 
D|-3------11----------| 


BREAKDOWN 

(1:56 - 1:58) 
E|---------------| 
B|---------------| 
G|---------------| 
D|-3-3-1-3---3~--| 
A|-3-3-1-3---3~--| 
D|-3-3-1-3---3~--| 


(2:04 - 2:06) 
E|-----------| 
B|-----------| 
G|-----------| 
D|-1/3\1/3~--| 
A|-1/3\1/3~--| 
D|-1/3\1/3~--| 


(2:08 - 2:09) 
E|-----| 
B|-----| 
G|-----| 
D|-3\--| 
A|-3\--| 
D|-3\--| 


(2:10 - 2:51) 
E|------------------------------| 
B|------------------------------| 
G|------------------------------| 
D|-3-3-1-3--3--------6---5------| (6x) 
A|-3-3-1-3--3--x3---------------| 
D|-3-3-1-3--3-------6-6-5-5-----| 


OUTRO 

(2:52 - 2:53) 
E|------------| 
B|------------| 
G|------------| 
D|-3-3-1-3\---| 
A|-3-3-1-3\---| 
D|-3-3-1-3\---| 
		  

See also:

tabs Red Hot Chili Peppers - Under The Bridge (ver. 2) tabs Good Charlotte - Hold On tabs Ben Harper - Diamonds on inside tabs Good Charlotte - Predictable tabs Paramore - Misery Business tabs Red Hot Chili Peppers - Scar Tissue (ver. 4)
e-chords

Other versions:

tabs You Me At Six - Time Is Money
auto scroll beats size up size down change color hide chords drawings
tab show chords e-chords YouTube Clip e-chords hide all tabs e-chords go to top tab

share with facebook