Uriah Heep

home > Uriah Heep

The wizard Tab

Uriah Heep

Difficulty: EasyEasy

by europeu

tuner correct add songbook print version text version save to e-mail
chordsukulelecavacokeyboardtabbassdrumsharmonicsflute Guitar Pro
chords

The wizard

Year: 1983 - Album: 20th Century Masters Uriah Heep

  		E-----2---2---3P2--0H2----------------------------------2---------- 
B-------3---3----3-----3-----------0-------0------------3---------- 
G--------------------------------0-------0--------------2---------- 
D---0--------------------------2-------0-----3-0-3B4-0--0---------- 
A----------------------------3-------2-------3-0-3B4-0------------- 
E------------------------------------------------------------------ 
                                                             
E-----2---2---3P2--0H2----------------------------------2---------- 
B-------3---3----3-----3-----------0-------0-hold-------3---------- 
G--------------------------------0-------0--------------2---------- 
D---0--------------------------2-------0---------3B4-0--0---------- 
A---0------------------------3-------2-----------3B4-0------------- 
E------------------------------------------------------------------ 
 
E-----2----2-----2--2--3--2--0--2--0--0-0-0-0-----------------2---- 
B-----3----3-----3--3--3--3--3--3-----1-1-1-1---0-0-0-0--0-0--3---- 
G-----2----2-----2--2--2--2--2--2-----0-0-0-0---0-0-0-0--0-0--2---- 
D---0-0--0-0-----0--0--0--0--0--0-----2-2-2-2---0-0-0-0--0-0--0---- 
A---0----0----------------------------3-3-3-3---2-2-2-2--2-2------- 
E------------------------------------------------------------------ 
 
 

	  

Search Paypal
auto scroll beats size up size down change color hide chords drawings
tab show chords e-chords YouTube Clip e-chords hide all tabs e-chords go to top tab