Unwound

Off This Century

Unwound

tabs nolevel nolevel

by  ROBEPOIEL

save to print version add songbook text version e-mail correct tuner
chordsukulelecavacokeyboardtabbassdrumsharmonicaflute Guitar Pro
close

there isn't a video lesson for this song

chords

Off This Century

	  		



Intro: 
e|------------------------------------------------| 
B|-5-----5-----5-----5-----5-----5-----5-----5----| 
G|-6-----6-----6-----6-----6-----6-----6-----6----| 
D|-7-----7-----7-----7-----7-----7-----7-----7----| 
A|------------------------------------------------| 
E|------------------------------------------------| 
+ 
e|-------------------------7-----7-----7-----7----| 
B|-5-----5-----5-----5-----5-----5-----5-----5----| 
G|-5-----5-----5-----5-----5-----5-----5-----5----| 
D|-7-----7-----7-----7-----7-----7-----7-----7----| 
A|------------------------------------------------| 
E|------------------------------------------------| 
+ 
e|------------------------------------------------| 
B|-3-----3-----3-----3-----3-----3-----3-----3----| 
G|-4-----4-----4-----4-----4-----4-----4-----4----| 
D|-5-----5-----5-----5-----5-----5-----5-----5----| 
A|------------------------------------------------| 
E|------------------------------------------------| 
+ 
e|-5-----5-----5-----5-----5-----5-----5-----5----| 
B|-3-----3-----3-----3-----3-----3-----3-----3----| 
G|-4-----4-----4-----4-----4-----4-----4-----4----| 
D|-5-----5-----5-----5-----5-----5-----5-----5----| 
A|------------------------------------------------| 
E|------------------------------------------------| 
+ 
e|------------------------------------------------| 
B|-5-----5-----5-----5-----5-----5-----5-----5----| 
G|-6-----6-----6-----6-----6-----6-----6-----6----| 
D|-7-----7-----7-----7-----7-----7-----7-----7----| 
A|------------------------------------------------| 
E|------------------------------------------------| 
+ 
e|-------------------------7-----7-----7-----7----| 
B|-5-----5-----5-----5-----5-----5-----5-----5----| 
G|-5-----5-----5-----5-----5-----5-----5-----5----| 
D|-7-----7-----7-----7-----7-----7-----7-----7----| 
A|------------------------------------------------| 
E|------------------------------------------------| 
+ 
e|------------------------------------------------| 
B|-3-----3-----3-----3-----3-----3-----3-----3----| 
G|-4-----4-----4-----4-----4-----4-----4-----4----| 
D|-5-----5-----5-----5-----5-----5-----5-----5----| 
A|------------------------------------------------| 
E|------------------------------------------------| 
+ 
e|-5-----5-----5-----5-----5-----5-----5-----5----| 
B|-3-----3-----3-----3-----3-----3-----3-----3----| 
G|-4-----4-----4-----4-----4-----4-----4-----4----| 
D|-5-----5-----5-----5-----5-----5-----5-----5----| 
A|------------------------------------------------| 
E|------------------------------------------------| 
+ 
e|------------------------------------------------| 
B|-5-----5-----5-----5-----5-----5-----5-----5----| 
G|-6-----6-----6-----6-----6-----6-----6-----6----| 
D|-7-----7-----7-----7-----7-----7-----7-----7----| 
A|------------------------------------------------| 
E|------------------------------------------------| 
+ 
e|-------------------------7-----7-----7-----7----| 
B|-5-----5-----5-----5-----5-----5-----5-----5----| 
G|-5-----5-----5-----5-----5-----5-----5-----5----| 
D|-7-----7-----7-----7-----7-----7-----7-----7----| 
A|------------------------------------------------| 
E|------------------------------------------------| 
+ 
e|------------------------------------------------| 
B|-3-----3-----3-----3-----3-----3-----3-----3----| 
G|-4-----4-----4-----4-----4-----4-----4-----4----| 
D|-5-----5-----5-----5-----5-----5-----5-----5----| 
A|------------------------------------------------| 
E|------------------------------------------------| 
+ 
e|-5-----5-----5-----5-----5-| 
B|-3-----3-----3-----3-----3-| 
G|-4-----4-----4-----4-----4-| 
D|-5-----5-----5-----5-----5-| 
A|---------------------------| 
E|---------------------------| 



Verse I: 
e|------------------------------------------------| 
B|------------------------------------------------| 
G|------------------------------------------------| 
D|------------------------------------------------| 
A|------------------------------------------------| 
E|-0--1-p0--1--3--0--3--5-----------7-------------| 
+ 
e|------------------------------------------------| 
B|------------------------------------------------| 
G|------------------------------------------------| 
D|------------------------------------------------| 
A|------------------------------------------------| 
E|-0--1-p0--1--3--0--3--5-------------------------| 
+ 
e|------------------------------------------------| 
B|------------------------------------------------| 
G|------------------------------------------------| 
D|------------------------------------------------| 
A|------------------------------------------------| 
E|-0--1-p0--1--3--0--3--5-----------7-------------| 
+ 
e|------------------------------------------------| 
B|------------------------------------------------| 
G|------------------------------------------------| 
D|------------------------------------------------| 
A|------------------------------------------------| 
E|-0--1-p0--1--3--0--3--5-------------------------| 
+ 
e|------------------------------------------------| 
B|------------------------------------------------| 
G|------------------------------------------------| 
D|------------------------------------------------| 
A|------------------------------------------------| 
E|-0--1-p0--1--3--0--3--5-----------7-------------| 
+ 
e|------------------------------------------------| 
B|------------------------------------------------| 
G|------------------------------------------------| 
D|------------------------------------------------| 
A|------------------------------------------------| 
E|-0--1-p0--1--3--0--3--5-------------------------| 
+ 
e|------------------------------------------------| 
B|------------------------------------------------| 
G|------------------------------------------------| 
D|------------------------------------------------| 
A|------------------------------------------------| 
E|-0--1-p0--1--3--0--3--5-----------7-------------| 
+ 
e|---------------------------------------------| 
B|---------------------------------------------| 
G|---------------------------------------------| 
D|---------------------------------------------| 
A|---------------------------------------------| 
E|-0--1-p0--1--3--0--3--5----------------------| 



Interlude: 
 * pick double time 
e|------------------------------------------------|| 
B|------------------------------------------------|| 
G|------------------------------------------------|| x 3 
D|------------------------------------------------|| 
A|------------------------------------------------|| 
E|-5--5--5--5--5--5--5--5--5--5--5--5--5--5--5--5-|| 
+ 
e|---------------------------| 
B|---------------------------| 
G|---------------------------| 
D|---------------------------| 
A|---------------------------| 
E|-5--5--5--5--5--5--5--5--5-| 



Verse II: 
e|------------------------------------------------| 
B|------------------------------------------------| 
G|------------------------------------------------| 
D|------------------------------------------------| 
A|------------------------------------------------| 
E|-0--1-p0--1--3--0--3--5-----------7-------------| 
+ 
e|------------------------------------------------| 
B|------------------------------------------------| 
G|------------------------------------------------| 
D|------------------------------------------------| 
A|------------------------------------------------| 
E|-0--1-p0--1--3--0--3--5-------------------------| 
+ 
e|------------------------------------------------| 
B|------------------------------------------------| 
G|------------------------------------------------| 
D|------------------------------------------------| 
A|------------------------------------------------| 
E|-0--1-p0--1--3--0--3--5-----------7-------------| 
+ 
e|------------------------------------------------| 
B|------------------------------------------------| 
G|------------------------------------------------| 
D|------------------------------------------------| 
A|------------------------------------------------| 
E|-0--1-p0--1--3--0--3--5-------------------------| 
+ 
e|------------------------------------------------| 
B|------------------------------------------------| 
G|------------------------------------------------| 
D|------------------------------------------------| 
A|------------------------------------------------| 
E|-0--1-p0--1--3--0--3--5-----------7-------------| 
+ 
e|------------------------------------------------| 
B|------------------------------------------------| 
G|------------------------------------------------| 
D|------------------------------------------------| 
A|------------------------------------------------| 
E|-0--1-p0--1--3--0--3--5-------------------------| 
+ 
e|------------------------------------------------| 
B|------------------------------------------------| 
G|------------------------------------------------| 
D|------------------------------------------------| 
A|----------------------5-----------2-------------| 
E|-0--1-p0--1--3--0--3----------------------------| 
+ 
e|---------------------------------------------| 
B|---------------------------------------------| 
G|---------------------------------------------| 
D|---------------------------------------------| 
A|---------------------------------------------| 
E|-0--1-p0--1--3--0--3--5----------------------| 



Pre-Chorus I: 
 * pick double time 
e|------------------------------------------------|| 
B|------------------------------------------------|| 
G|------------------------------------------------|| x 4 
D|------------------------------------------------|| 
A|------------------------------------------------|| 
E|-5--5--5--5--5--5--5--5--5--5--5--5--5--5--5--5-|| 



Chorus: 
 * add delay/echo/reverb 
 * pick double time throughout 
e|------------------------------------------------| 
B|------------------------------------------------| 
G|-5--5--5--5--5--5--5--5--5--5--5--5--5--5--5--5-| 
D|-7--7--7--7--7--7--7--7--7--7--7--7--7--7--7--7-| 
A|(0)---------------------------------------------| 
E|------------------------------------------------| 
+ 
e|------------------------------------------------| 
B|------------------------------------------------| 
G|-7--7--7--7--7--7--7--7--7--7--7--7--7--7--7--7-| 
D|-9--9--9--9--9--9--9--9--9--9--9--9--9--9--9--9-| 
A|(0)---------------------------------------------| 
E|------------------------------------------------| 
+ 
e|------------------------------------------------| 
B|------------------------------------------------| 
G|-5--5--5--5--5--5--5--5--5--5--5--5--5--5--5--5-| 
D|-7--7--7--7--7--7--7--7--7--7--7--7--7--7--7--7-| 
A|(0)---------------------------------------------| 
E|------------------------------------------------| 
+ 
e|------------------------------------------------| 
B|------------------------------------------------| 
G|-5--5--5--5--5--5--5--5--7--7--7--7--7--7--7--7-| 
D|-5--5--5--5--5--5--5--5--9--9--9--9--9--9--9--9-| 
A|(0)---------------------------------------------| 
E|------------------------------------------------| 



Pre-Chorus II: 
 * pick double time 
e|------------------------------------------------|| 
B|------------------------------------------------|| 
G|------------------------------------------------|| x 2 
D|------------------------------------------------|| 
A|------------------------------------------------|| 
E|-5--5--5--5--5--5--5--5--5--5--5--5--5--5--5--5-|| 



Interlude Lead: 
 * pick double time and slow fade in/volume swell 
e|------------------------------------------------|| 
B|-11-11-11-11-11-11-11-11-11-11-11-11-11-11-11-11|| 
G|------------------------------------------------|| x 4 
D|------------------------------------------------|| 
A|------------------------------------------------|| 
E|------------------------------------------------|| 



Verse III: 
e|------------------------------------------------| 
B|------------------------------------------------| 
G|------------------------------------------------| 
D|------------------------------------------------| 
A|------------------------------------------------| 
E|-0--1-p0--1--3--0--3--5-----------7-------------| 
+ 
e|------------------------------------------------| 
B|------------------------------------------------| 
G|------------------------------------------------| 
D|------------------------------------------------| 
A|------------------------------------------------| 
E|-0--1-p0--1--3--0--3--5-------------------------| 
+ 
e|------------------------------------------------| 
B|------------------------------------------------| 
G|------------------------------------------------| 
D|------------------------------------------------| 
A|----------------------5-------------------------| 
E|-0--1-p0--1--3--0--3----------------------------| 
+ 
e|------------------------------------------------| 
B|------------------------------------------------| 
G|------------------------------------------------| 
D|------------------------------------------------| 
A|------------------------------------------------| 
E|-0--1-p0--1--3--0--3--5-------------------------| 
+ 
e|------------------------------------------------| 
B|------------------------------------------------| 
G|------------------------------------------------| 
D|------------------------------------------------| 
A|------------------------------------------------| 
E|-0--1-p0--1--3--0--3--5-----------7-------------| 
+ 
e|------------------------------------------------| 
B|------------------------------------------------| 
G|------------------------------------------------| 
D|------------------------------------------------| 
A|------------------------------------------------| 
E|-0--1-p0--1--3--0--3--5-------------------------| 
+ 
e|------------------------------------------------| 
B|------------------------------------------------| 
G|------------------------------------------------| 
D|------------------------------------------------| 
A|----------------------5-----------2-------------| 
E|-0--1-p0--1--3--0--3----------------------------| 
+ 
e|---------------------------------------------| 
B|---------------------------------------------| 
G|---------------------------------------------| 
D|---------------------------------------------| 
A|---------------------------------------------| 
E|-0--1-p0--1--3--0--3--5-----5-----5-----5----| 



Outro: 
e|------------------------------------------------| 
B|-14----14----14----14----14----14----14----14---| 
G|-14----14----14----14----14----14----14----14---| 
D|-14----14----14----14----14----14----14----14---| 
A|------------------------------------------------| 
E|------------------------------------------------| 
+ 
e|------------------------------------------------| 
B|-13----13----13----13----13----13----13----13\--| 
G|-14----14----14----14----14----14----14----14\--| 
D|-14----14----14----14----14----14----14----14\--| 
A|------------------------------------------------| 
E|------------------------------------------------| 
+ 
e|------------------------------------------------| 
B|-12----12----12----12----12----12----12----12---| 
G|-12----12----12----12----12----12----12----12---| 
D|-12----12----12----12----12----12----12----12---| 
A|------------------------------------------------| 
E|------------------------------------------------| 
+ 
e|------------------------------------------------| 
B|-12----12----12----12----12----12----12----12---| 
G|-12----12----12----12----12----12----12----12---| 
D|-12----12----12----12----12----12----12----12---| 
A|------------------------------------------------| 
E|------------------------------------------------| 
+ 
e|------------------------------------------------| 
B|-14----14----14----14----14----14----14----14---| 
G|-14----14----14----14----14----14----14----14---| 
D|-14----14----14----14----14----14----14----14---| 
A|------------------------------------------------| 
E|------------------------------------------------| 
+ 
e|------------------------------------------------| 
B|-13----13----13----13----13----13----13----13\--| 
G|-14----14----14----14----14----14----14----14\--| 
D|-14----14----14----14----14----14----14----14\--| 
A|------------------------------------------------| 
E|------------------------------------------------| 
+ 
e|------------------------------------------------| 
B|-12----12----12----12----12----12----12----12---| 
G|-12----12----12----12----12----12----12----12---| 
D|-12----12----12----12----12----12----12----12---| 
A|------------------------------------------------| 
E|------------------------------------------------| 
+ 
e|------------------------------------------------| 
B|-12----12----12----12----12----12----12----12\--| 
G|-12----12----12----12----12----12----12----12\--| 
D|-12----12----12----12----12----12----12----12\--| 
A|------------------------------------------------| 
E|------------------------------------------------| 
+ 
e|----12-------12-------12\---10-------10-------10| 
B|-------14-------14-------------12-------12------| 
G|/14-------14-------14----12-------12-------12---| 
D|------------------------------------------------| 
A|------------------------------------------------| 
E|------------------------------------------------| 
+ 
e|----12-------12-------12\------10----12-10----10| 
B|-------13-------13----------12-------------12---| 
G|/14-------14-------14----13---------------------| 
D|------------------------------------------------| 
A|------------------------------------------------| 
E|------------------------------------------------| 
+ 
e|----10-------10-------10\---7--------7--------7-| 
B|-------12-------12-------------9--------9-------| 
G|/12-------12-------12----9--------9--------9----| 
D|------------------------------------------------| 
A|------------------------------------------------| 
E|------------------------------------------------| 
+ 
e|----12-------12-------12\---10-------10-------10| 
B|-------14-------14-------------12-------12------| 
G|/14-------14-------14----12-------12-------12---| 
D|------------------------------------------------| 
A|------------------------------------------------| 
E|------------------------------------------------| 
+ 
e|----12-------12-------12\------10----12-10----10| 
B|-------13-------13----------12-------------12---| 
G|/14-------14-------14----13---------------------| 
D|------------------------------------------------| 
A|------------------------------------------------| 
E|------------------------------------------------| 
+ 
e|----10-------10-------10\---7--------7--------7-| 
B|-------12-------12-------------9--------9-------| 
G|/12-------12-------12----9--------9--------9----| 
D|------------------------------------------------| 
A|------------------------------------------------| 
E|------------------------------------------------| 
+ 
e|----12-------12-------12\---10-------10-------10| 
B|-------14-------14-------------12-------12------| 
G|/14-------14-------14----12-------12-------12---| 
D|------------------------------------------------| 
A|------------------------------------------------| 
E|------------------------------------------------| 
+ 
e|----12-------12-------12\------10----12-10----10| 
B|-------13-------13----------12-------------12---| 
G|/14-------14-------14----13---------------------| 
D|------------------------------------------------| 
A|------------------------------------------------| 
E|------------------------------------------------| 
+ 
e|----10-------10-------10\---7--------7--------7-| 
B|-------12-------12-------------9--------9-------| 
G|/12-------12-------12----9--------9--------9----| 
D|------------------------------------------------| 
A|------------------------------------------------| 
E|------------------------------------------------| 
+ 
e|------------------------------------------------| 
B|-14---------------------------------------------| 
G|-14---------------------------------------------| 
D|-14---------------------------------------------| 
A|-12---------------------------------------------| 
E|------------------------------------------------| 
 
		  

See also:

tabs Jack Johnson - Good People tabs Creed - One Last Breath tabs Guns N' Roses - Sweet Child o' mine tabs Foo Fighters - Learn to Fly (acoustic version) tabs The Strokes - Reptilia tabs Jack Johnson - Breakdown (intro)
e-chords

Other versions:

tabs Unwound - Off This Century
auto scroll beats size up size down change color hide chords drawings
tab show chords e-chords YouTube Clip e-chords hide all tabs e-chords go to top tab

share with facebook