Unwound

December

Unwound

tabs nolevel nolevel

by  LUCICAMARGO

save to print version add songbook text version e-mail correct tuner
chordsukulelecavacokeyboardtabbassdrumsharmonicaflute Guitar Pro
close

there isn't a video lesson for this song

chords

December

	  		Intro: 
e|------------------------------------------------|| 
A|------------------------------------------------|| 
G|------------------------------------------------|| x 2 
D|------------------------------------------------|| 
A|------------------------------------------------|| 
E|------------------------------------------------|| 
+ 
e|------------------------------------------------|| 
A|-15-#-----15-#-----15-#-------------------------|| 
G|-14-#-----14-#-----14-#-------------------------|| x 4 
D|------------------------------------------------|| 
A|------------------------------------------------|| 
E|------------------------------------------------|| 



VERSE I: 
e|------------------------------------------------|| 
A|-15-x--x--15-x--x--15-x--x--x--x--x--x--x--x--x-|| 
G|-14-x--x--14-x--x--14-x--x--x--x--x--x--x--x--x-|| x 4 
D|------------------------------------------------|| 
A|------------------------------------------------|| 
E|------------------------------------------------|| 
+ 
e|------------------------------------------------|| 
A|-15-x--x--15-x--x--15-x--x--x--x--x--x--x--x--x-|| 
G|-14-x--x--14-x--x--14-x--x--x--x--x--x--x--x--x-|| x 4 
D|------------------------------------------------|| 
A|------------------------------------------------|| 
E|------------------------------------------------|| 
+ 
e|-0--0--0--0--0--0--0--0--0--0--0--0--0--0--0--0-|| 
A|-15-x--x--15-x--x--15-x--x--x--x--x--x--x--x--x-|| 
G|-14-x--x--14-x--x--14-x--x--x--x--x--x--x--x--x-|| x 4 
D|------------------------------------------------|| 
A|------------------------------------------------|| 
E|------------------------------------------------|| 
+ 
e|-0--0--0--0--0--0--0--0--0--0--0--0--0--0--0--0-| 
A|-15-15-15-15-15-15-15-15-15-15-15-15-15-15-15-15| 
G|-14----------------------14-14-14-14-14-14-14-14| 
D|------------------------------------------------| 
A|------------------------------------------------| 
E|------------------------------------------------| 



Pre-Chorus I: 
e|------------------------------------------------|| 
A|-17-0--0--15-0--0--14-0--0--15-0--0--14-0--15-0-|| 
G|------------------------------------------------|| x 4 
D|------------------------------------------------|| 
A|------------------------------------------------|| 
E|------------------------------------------------|| 



Chorus I: 
e|----------------------------------------------------------------------------0--0--0--0--0--0--0-| 
A|-------------------------------------------------10----10-10----10----------0--0--0--0--0--0--0-| 
G|-12-x--x--12-x--x--x--x--x--x--x--x--x--x--x--x--9-----9--10----10/14-------14-14-14-14-14-14-14| 
D|-10-x--x--10-x--x--x--x--x--x--x--x--x--x--x--x-------------------------------------------------| 
A|----0--0-----0--0--0--0--0--0--0--0--0--0--0--0-------------------------------------------------| 
E|------------------------------------------------------------------------------------------------| 
+ 
e|----------------------------------------------------------------------------0--0--0--0--0--0--0-| 
A|----0--0-----0--0--0--0--0--0--0--0--0--0--0--0--10----10-10----10----------0--0--0--0--0--0--0-| 
G|-12-x--x--12-x--x--x--x--x--x--x--x--x--x--x--x--9-----9--10----10/14-------14-14-14-14-14-14-14| 
D|-10-x--x--10-x--x--x--x--x--x--x--x--x--x--x--x-------------------------------------------------| 
A|----0--0-----0--0--0--0--0--0--0--0--0--0--0--0-------------------------------------------------| 
E|------------------------------------------------------------------------------------------------| 



INTERLUDE: 
e|-0-----------------12-#-----15-#----------------|| 
A|-0--#-----12-#-----12-#-----12-#-----11-#--11-#-|| 
G|-14-#-----13-#--------------12-#-----10-#--9--#-|| x 4 
D|------------------------------------------------|| 
A|------------------------------------------------|| 
E|------------------------------------------------|| 



VERSE II: 
e|-0--0--0--0--0--0--0--0--0--0--0--0--0--0--0--0-|| 
A|-15-x--x--15-x--x--15-x--x--x--x--x--x--x--x--x-|| 
G|-14-x--x--14-x--x--14-x--x--x--x--x--x--x--x--x-|| x 4 
D|------------------------------------------------|| 
A|------------------------------------------------|| 
E|------------------------------------------------|| 
+ 
e|-0--0--0--0--0--0--0--0--0--0--0--0--0--0--0--0-| 
A|-15-15-15-15-15-15-15-15-15-15-15-15-15-15-x--x-| 
G|-14-14-14-14-14-14-14-14-14-14-14-14-14-14-14-14| 
D|------------------------------------------------| 
A|------------------------------------------------| 
E|------------------------------------------------| 



Pre-Chorus II: 
      DT       DT       DT       DT 
e|---(0)(0)---(0)(0)---(0)(0)---(0)(0)---(0)---(0)|| 
A|-17-0--0--15-0--0--14-0--0--15-0--0--14-0--15-0-|| 
G|------------------------------------------------|| x 4 
D|------------------------------------------------|| 
A|------------------------------------------------|| 
E|------------------------------------------------|| 



Chorus II: 
e|----------------------------------------------------------------------------0--0--0--0--0--0--0-| 
A|-------------------------------------------------10----10-10----10----------0--0--0--0--0--0--0-| 
G|-12-x--x--12-x--x--x--x--x--x--x--x--x--x--x--x--9-----9--10----10/14-------14-14-14-14-14-14-14| 
D|-10-x--x--10-x--x--x--x--x--x--x--x--x--x--x--x-------------------------------------------------| 
A|----0--0-----0--0--0--0--0--0--0--0--0--0--0--0-------------------------------------------------| 
E|------------------------------------------------------------------------------------------------| 
+ 
e|----------------------------------------------------------------------------12-12-12-12-12-12-12| 
A|----0--0-----0--0--0--0--0--0--0--0--0--0--0--0--10----10-10----10----------0--0--0--0--0--0--0-| 
G|-12-x--x--12-x--x--x--x--x--x--x--x--x--x--x--x--9-----9--10----10/14-------14-14-14-14-14-14-14| 
D|-10-x--x--10-x--x--x--x--x--x--x--x--x--x--x--x-------------------------------------------------| 
A|----0--0-----0--0--0--0--0--0--0--0--0--0--0--0-------------------------------------------------| 
E|------------------------------------------------------------------------------------------------| 
+ 
e|----------------------------------------------------------------------------12-12-12-12-12-12-12| 
A|----0--0-----0--0--0--0--0--0--0--0--0--0--0--0--10----10-10----10----------0--0--0--0--0--0--0-| 
G|-12-x--x--12-x--x--x--x--x--x--x--x--x--x--x--x--9-----9--10----10/14-------14-14-14-14-14-14-14| 
D|-10-x--x--10-x--x--x--x--x--x--x--x--x--x--x--x-------------------------------------------------| 
A|----0--0-----0--0--0--0--0--0--0--0--0--0--0--0-------------------------------------------------| 
E|------------------------------------------------------------------------------------------------| 
+ 
e|----------------------------------------------------------------------------0--0--0--0--0--0--0-| 
A|----0--0-----0--0--0--0--0--0--0--0--0--0--0--0--10----10-10----10----------0--0--0--0--0--0--0-| 
G|-12-x--x--12-x--x--x--x--x--x--x--x--x--x--x--x--9-----9--10----10/14-------14-14-14-14-14-14-14| 
D|-10-x--x--10-x--x--x--x--x--x--x--x--x--x--x--x-------------------------------------------------| 
A|----0--0-----0--0--0--0--0--0--0--0--0--0--0--0-------------------------------------------------| 
E|------------------------------------------------------------------------------------------------| 



Bridge: 
e|-0--------0--------------------------------------0--------0-------------------------------------| 
A|-10-------10-------------------------------------8--------8-------------------------------------| 
G|-9--------9--------------------------------------7--------7-------------------------------------| 
D|-0--------0--------------------------------------0--------0-------------------------------------| 
A|------------------------------------------------------------------------------------------------| 
E|------------------------------------------------------------------------------------------------| 
+ 
e|-0--------0--------------------------------------0--------0-------------------------------------| 
A|-0--------0--------------------------------------0--------0-------------------------------------| 
G|-12-------12-------------------------------------14-------14------------------------------------| 
D|-9--------10-------------------------------------12-------12------------------------------------| 
A|------------------------------------------------------------------------------------------------| 
E|------------------------------------------------------------------------------------------------| 
+ 
e|-0--------0--------------------------------------0--------0-------------------------------------| 
A|-10-------10-------------------------------------8--------8-------------------------------------| 
G|-9--------9--------------------------------------7--------7-------------------------------------| 
D|-0--------0--------------------------------------0--------0-------------------------------------| 
A|------------------------------------------------------------------------------------------------| 
E|------------------------------------------------------------------------------------------------| 
+ 
e|-0--------0--------------------------------------0--------0-------------------------------------| 
A|-0--------0--------------------------------------0--------0-------------------------------------| 
G|-12-------12-------------------------------------14-------14------------------------------------| 
D|-9--------10-------------------------------------12-------12------------------------------------| 
A|------------------------------------------------------------------------------------------------| 
E|------------------------------------------------------------------------------------------------| 
+ 
e|-0--0--0--0--0--0--0--0--0--0--0--0--0--0--0--0--0--0--0--0--0--0--0--0--0--0--0--0--0--0--0--0-| 
A|-10-10-10-10-10-10-10-10-10-10-10-10-10-10-10-10-8--8--8--8--8--8--8--8--8--8--8--8--8--8--8--8-| 
G|-9--9--9--9--9--9--9--9--9--9--9--9--9--9--9--9--7--7--7--7--7--7--7--7--7--7--7--7--7--7--7--7-| 
D|------------------------------------------------------------------------------------------------| 
A|------------------------------------------------------------------------------------------------| 
E|------------------------------------------------------------------------------------------------| 
+ 
e|-0--0--0--0--0--0--0--0--0--0--0--0--0--0--0--0--0--0--0--0--0--0--0--0--0--0--0--0--0--0--0--0-| 
A|-0--0--0--0--0--0--0--0--0--0--0--0--0--0--0--0--0--0--0--0--0--0--0--0--0--0--0--0--0--0--0--0-| 
G|-12-12-12-12-12-12-12-12-12-12-12-12-12-12-12-12-14-14-14-14-14-14-14-14-14-14-14-14-14-14-14-14| 
D|-9--9--9--10-10-10-10-10-10-10-10-10-10-10-10-10-12-12-12-12-12-12-12-12-12-12-12-12-12-12-12-12| 
A|------------------------------------------------------------------------------------------------| 
E|------------------------------------------------------------------------------------------------| 
+ 
e|-0--0--0--0--0--0--0--0--0--0--0--0--0--0--0--0--0--0--0--0--0--0--0--0--0--0--0--0--0--0--0--0-| 
A|-10-10-10-10-10-10-10-10-10-10-10-10-10-10-10-10-8--8--8--8--8--8--8--8--8--8--8--8--8--8--8--8-| 
G|-9--9--9--9--9--9--9--9--9--9--9--9--9--9--9--9--7--7--7--7--7--7--7--7--7--7--7--7--7--7--7--7-| 
D|------------------------------------------------------------------------------------------------| 
A|------------------------------------------------------------------------------------------------| 
E|------------------------------------------------------------------------------------------------| 
+ 
e|-0--0--0--0--0--0--0--0--0--0--0--0--0--0--0--0--0--0--0--0--0--0--0--0--0--0--0--0--0--0--0--0-| 
A|-0--0--0--0--0--0--0--0--0--0--0--0--0--0--0--0--0--0--0--0--0--0--0--0--0--0--0--0--0--0--0--0-| 
G|-12-12-12-12-12-12-12-12-12-12-12-12-12-12-12-12-14-14-14-14-14-14-14-14-14-14-14-14-14-14-14-14| 
D|-9--9--9--10-10-10-10-10-10-10-10-10-10-10-10-10-12-12-12-12-12-12-12-12-12-12-12-12-12-12-12-12| 
A|------------------------------------------------------------------------------------------------| 
E|------------------------------------------------------------------------------------------------| 
+ 
e|-0--0--0--0--0--0--0--0--0--0--0--0--0--0--0--0--0--0--0--0--0--0--0--0--0--0--0--0--0--0--0--0-| 
A|-10-10-10-10-10-10-10-10-10-10-10-10-10-10-10-10-8--8--8--8--8--8--8--8--8--8--8--8--8--8--8--8-| 
G|-9--9--9--9--9--9--9--9--9--9--9--9--9--9--9--9--7--7--7--7--7--7--7--7--7--7--7--7--7--7--7--7-| 
D|------------------------------------------------------------------------------------------------| 
A|------------------------------------------------------------------------------------------------| 
E|------------------------------------------------------------------------------------------------| 
+ 
e|-0--0--0--0--0--0--0--0--0--0--0--0--0--0--0--0--0--0--0--0--0--0--0--0--0--0--0--0--0--0--0--0-| 
A|-0--0--0--0--0--0--0--0--0--0--0--0--0--0--0--0--0--0--0--0--0--0--0--0--0--0--0--0--0--0--0--0-| 
G|-12-12-12-12-12-12-12-12-12-12-12-12-12-12-12-12-14-14-14-14-14-14-14-14-14-14-14-14-14-14-14-14| 
D|-9--9--9--10-10-10-10-10-10-10-10-10-10-10-10-10-12-12-12-12-12-12-12-12-12-12-12-12-12-12-12-12| 
A|------------------------------------------------------------------------------------------------| 
E|------------------------------------------------------------------------------------------------| 
+ 
e|-0--0--0--0--0--0--0--0--0--0--0--0--0--0--0--0-| 
A|-0--0--0--0--0--0--0--0--0--0--0--0--0--0--0--0-| 
G|-16-16-16-16-16-16-16-16-16-17-17-17-17-16-16-16| 
D|-14-14-14-14-14-14-14-14-14-14-14-14-14-14-14-14| 
A|------------------------------------------------| 
E|------------------------------------------------| 



BRIDGE OVERDUB: 
e|------------------------------------------------------------------------------------------------|| 
A|------------------------------------------------------------------------------------------------|| 
G|------------------------------------------------------------------------------------------------|| x 4 
D|------------------------------------------------------------------------------------------------|| 
A|------------------------------------------------------------------------------------------------|| 
E|------------------------------------------------------------------------------------------------|| 
+ 
e|------------------------------------------------------------------------------------------------| 
A|------------------------------------------------------------------------------------------------| 
G|-------------------------------------------------2----------------------------------------------| 
D|-5--0-h2--------------------------------------------3--0-h2-------------------------------------| 
A|----------0-------------------------------------------------------------------------------------| 
E|------------------------------------------------------------------------------------------------| 
+ 
e|------------------------------------------------------------------------------------------------| 
A|------------------------------------------------------------------------------------------------| 
G|------------------------------------------------------------------------------------------------| 
D|-2-h3--5----------------------------------------------------------------------------------------| 
A|----------3--------------------------------------3-h5--7--0-------------------------------------| 
E|------------------------------------------------------------------------------------------------| 
+ 
e|------------------------------------------------------------------------------------------------| 
A|------------------------------------------------------------------------------------------------| 
G|-------------------------------------------------2----------------------------------------------| 
D|-5--0-h2--------------------------------------------3--0-h2-------------------------------------| 
A|----------0-------------------------------------------------------------------------------------| 
E|------------------------------------------------------------------------------------------------| 
+ 
e|------------------------------------------------------------------------------------------------| 
A|------------------------------------------------------------------------------------------------| 
G|------------------------------------------------------------------------------------------------| 
D|-2-h3--5----------------------------------------------------------------------------------------| 
A|----------3--------------------------------------3-h5--7--0-------------------------------------| 
E|------------------------------------------------------------------------------------------------| 
+ 
e|------------------------------------------------------------------------------------------------| 
A|------------------------------------------------------------------------------------------------| 
G|-------------------------------------------------2----------------------------------------------| 
D|-5--0-h2--------------------------------------------3--0-h2-------------------------------------| 
A|----------0-------------------------------------------------------------------------------------| 
E|------------------------------------------------------------------------------------------------| 
+ 
e|------------------------------------------------------------------------------------------------| 
A|------------------------------------------------------------------------------------------------| 
G|------------------------------------------------------------------------------------------------| 
D|-2-h3--5----------------------------------------------------------------------------------------| 
A|----------3--------------------------------------3-h5--7--0-------------------------------------| 
E|------------------------------------------------------------------------------------------------| 
+ 
e|------------------------------------------------| 
A|------------------------------------------------| 
G|------------------------------------------------| 
D|------------------------------------------------| 
A|-3-h5--7--5-------------------------------------| 
E|------------------------------------------------| 



FINAL: 
e|------------------------------------------------| 
A|-17---------------------------------------------| 
G|-17---------------------------------------------| 
D|------------------------------------------------| 
A|------------------------------------------------| 
E|------------------------------------------------|  
		  

See also:

tabs Jack Johnson - Good People tabs Creed - One Last Breath tabs Guns N' Roses - Sweet Child o' mine tabs Foo Fighters - Learn to Fly (acoustic version) tabs The Strokes - Reptilia tabs Jack Johnson - Breakdown (intro)
e-chords

Other versions:

tabs Collective Soul - December tabs The Nixons - December tabs D At Sea - December tabs Unwound - December tabs Collective Soul - December (ver. 2) tabs Collective Soul - December (ver. 3)
auto scroll beats size up size down change color hide chords drawings
tab show chords e-chords YouTube Clip e-chords hide all tabs e-chords go to top tab

share with facebook