Unwound

Envelope

Unwound

tabs nolevel nolevel

by  EDSOOLIVEIRA

save to print version add songbook text version e-mail correct tuner
chordsukulelecavacokeyboardtabbassdrumsharmonicaflute Guitar Pro
close

there isn't a video lesson for this song

chords

Envelope

	  		

Guitar: 
  * drone/feedback 
e|--------------------------------| 
B|--------------------------------| 
G|--------------------------------| 
D|--------------------------------| 
A|-15-----------------------------| 
E|--------------------------------| 
+ 
Intro: 
e|--------------------------------| 
B|--------------------------------| 
G|--------------------------------| 
D|--------------------------------| 
A|-151515151515-------------------| 
E|-------------16~-----17--17/19p0| 
+ 
Intro (variation about halfway through) 
e|--------------------------------| 
B|--------------------------------| 
G|-171717171717-------------------| 
D|-------------18------19--19/21p0| 
A|-151515151515-------------------| 
E|-------------16~-----17--17/19p0| 


Verse: 
e|-0--------------------------------------00000000| 
B|-0--------------------------------------00000000| 
G|-2--------------------------------------22222222| 
D|-2--------------------------------------22222222| 
A|-0----------------------------------------------| 
E|------------------------------------------------| 
+ 
Verse (3rd measure variation) 
e|-0--------------------------------------00000000| 
B|-0--------------------------------------00000000| 
G|-0--------------------------------------22222222| 
D|-2--------------------------------------22222222| 
A|-0----------------------------------------------| 
E|------------------------------------------------| 



Chorus: 
e|------------------------------------------------| 
B|------------------------------------------------| 
G|-12----------12-------12-------12----12---------| 
D|-10------(10)10---(10)10---(10)10----10---(10)--| 
A|-0-----0--0--0-----0--0-----0--0-----0-----0--0-| 
E|-12----12-12-12----12-12----12-12----12----12-12| 
+ 
e|------------------------------------------------| 
B|------------------------------------------------| 
G|-14----------14-------14-------14----14----14---| 
D|-12------(12)12---(12)12---(12)12(12)12----12---| 
A|-x-----x--x--x-----x--x-----x--x--x--x-----x----| 
E|-13----13-13-13----13-13----13-13-13-13----13---| 
+ 
e|------------------------------------------------| 
B|------------------------------------------------| 
G|-9-----9--9--9-----9--9-----9--9-----9-----9--9-| 
D|-x-----x--x--x-----x--x-----x--x-----x-----x--x-| 
A|-7-----7--7--7-----7--7-----7--7-----7-----7--7-| 
E|-9-----9--9--9-----9--9-----9--9-----9-----9--9-| 
+ 
e|------------------------------------------------| 
B|------------------------------------------------| 
G|-9-----9--9--9-----9--9-----9--9--9--9--9--9--9-| 
D|-x-----x--x--x-----x--x-----x--x--x--x--x--x--x-| 
A|-7-----7--7--7-----7--7-----7--7--7--7--7--7--7-| 
E|-9-----9--9--9-----9--9-----8--8--8--8--8--8--8-| 



Instrumental Bridge: 
e|(0)---------------------------------------------| 
B|-0----------------------------------------------| 
G|-x----------------------------------------------| 
D|-4-----------------------------------4-h5-----4-| 
A|-0----------------------------------------------| 
E|------------------------------------------------| 
+ 
e|------------------------------------------------| 
B|------------------------------------------------| 
G|-------------0----------------------------------| 
D|-2~----------0----------------------------------| 
A|------------------------------------------------| 
E|------------------------------------------------| 
+ 
e|------------------------------------------------| 
B|------------------------------------------------| 
G|-0-----------0--------0-------------------------| 
D|-x-----------x--------x-------------------------| 
A|-7-h9--9--9--9-/10-10-10-------------10---------| 
E|------------------------------------------------| 
+ 
e|------------------------------------------------| 
B|(0)---------------------------------------------| 
G|-0----------------------------------------------| 
D|-x----------------------------------------------| 
A|/12---------------------------------------------| 
E|------------------------------------------------| 



Post-Chorus: 
e|------------------------------------------------| 
B|------------------------------------------------| 
G|-12----12-12-12----12-12----12-12----12----12-12| 
D|-10----10-10-10----10-10----10-10----10----10-10| 
A|-0-----0--0--0-----0--0-----0--0-----0-----0--0-| 
E|-12----12-12-12----12-12----12-12----12----12-12| 
+ 
e|------------------------------------------------| 
B|------------------------------------------------| 
G|-12----12-12-12----12-12----12-12----12----12-12| 
D|-0-----0--0--0-----0--0-----0--0-----0-----0--0-| 
A|-0-----0--0--0-----0--0-----0--0-----0-----0--0-| 
E|-12----12-12-12----12-12----12-12----12----12-12| 
+ 
e|------------------------------------------------| 
B|------------------------------------------------| 
G|-7-----7--7--7-----7--7--7--5-----4-----5--4----| 
D|-0-----0--0--0-----0--0--0--0-----0-----0--0----| 
A|-x-----x--x--x-----x--x--x--x-------------------| 
E|-7-----7--7--7-----7--7--7--7-------------------| 
+ 
e|------------------------------------------------| 
B|------------------------------------------------| 
G|-4-----4--4--4-----4--4-----4--4--4--4--4--4--4-| 
D|-2-----2--2--2-----2--2-----2--2--2--2--2--2--2-| 
A|-2-----2--2--2-----2--2-----2--2--2--2--2--2--2-| 
E|-0-----0--0--0-----0--0-----0--0--0--0--0--0--0-| 



Final chord: 
e|-0----------------------------------------------| 
B|-0----------------------------------------------| 
G|-2----------------------------------------------| 
D|-2----------------------------------------------| 
A|-0----------------------------------------------| 
E|------------------------------------------------| 



Song Structure: 
Intro x 8 
Verse x 12 
Chorus x 2 
Instrumental Bridge 
Verse x 8 
Chorus x 2 
Post-Chorus x 2 
Final Chord 
		  

See also:

tabs Jack Johnson - Good People tabs Creed - One Last Breath tabs Guns N' Roses - Sweet Child o' mine tabs Foo Fighters - Learn to Fly (acoustic version) tabs The Strokes - Reptilia tabs Jack Johnson - Breakdown (intro)
e-chords

Other versions:

tabs Unwound - Envelope
auto scroll beats size up size down change color hide chords drawings
tab show chords e-chords YouTube Clip e-chords hide all tabs e-chords go to top tab

share with facebook