Unwound

Murder Movies

Unwound

tabs nolevel nolevel

by  JOV-CORREA

save to print version add songbook text version e-mail correct tuner
chordsukulelecavacokeyboardtabbassdrumsharmonicaflute Guitar Pro
close

there isn't a video lesson for this song

chords

Murder Movies

	  		



Standard Tuning 



Intro: 
e|------------------------------------------------|| 
B|-3--------3--------------3--------3-------------|| 
G|-3--------2-p0-----------3--------2-p0----------|| x 6 
D|------------------------------------------------|| 
A|------------------------------------------------|| 
E|------------------------------------------------|| 



Refrain: 
e|------------------------------------------------|| 
B|------------------------------------------------|| 
G|------------------------------------------------|| x 2 
D|------------------------------------------------|| 
A|------------------------------------------------|| 
E|-0-----0--0-----0-h1-p0--0-----0--0-----0-h1-p0-|| 



Verse: 
e|------------------------------------------------|| 
B|-3--------3--------------3--------3-------------|| 
G|-3--------2-p0-----------3--------2-p0----------|| x 2 
D|------------------------------------------------|| 
A|------------------------------------------------|| 
E|------------------------------------------------|| 



Chorus: 
e|------------------------------------|| 
B|----------------------5~------------|| 
G|-2-----0-h2--3----p0--5~-------3-p0-|| x 4 
D|------------------------------------|| 
A|------------------------------------|| 
E|------------------------------------|| 



Bridge: 
e|------------------------------------------------|| 
B|-3--------3-----3--------3--------3-----3-------|| 
G|-3--------2-p0--3-p2-p0--3--------2-p0--3-p2-p0-|| x 2 
D|------------------------------------------------|| 
A|------------------------------------------------|| 
E|------------------------------------------------|| 
+ 
e|------------------------------------------------| 
B|-------------0-----------------2-----0----------| 
G|-------3----------------------------------------| 
D|------------------------------------------------| 
A|-3----------------------------------------------| 
E|-------------------------2----------------------| 



Final Bar: 
e|------------------------------------------------| 
B|-3--------3-------------------------------------| 
G|-3--------2-p0----------------------------------| 
D|------------------------------------------------| 
A|------------------------------------------------| 
E|------------------------------------------------| 



Song Structure: 
Intro 
Refrain 
Verse 
Refrain 
Verse 
Refrain 
Chorus 
Verse 
Refrain 
Verse 
Refrain 
Chorus 
Bridge x 4 
Final Bar 



That's it.  Please leave any comments, questions, or requests.  Cheers! 
-Bennyshambles78- 
		  

See also:

tabs Jack Johnson - Good People tabs Creed - One Last Breath tabs Guns N' Roses - Sweet Child o' mine tabs Foo Fighters - Learn to Fly (acoustic version) tabs The Strokes - Reptilia tabs Jack Johnson - Breakdown (intro)
e-chords

Other versions:

tabs Unwound - Murder Movies
auto scroll beats size up size down change color hide chords drawings
tab show chords e-chords YouTube Clip e-chords hide all tabs e-chords go to top tab

share with facebook