U2

Pride (In The Name Of Love)

U2

tabs Beginner beginner

by  ACELOT

save to print version add songbook text version e-mail correct tuner
chordsukulelecavacokeyboardtabbassdrumsharmonicaflute Guitar Pro
close

there isn't a video lesson for this song

chords

Pride (In The Name Of Love)

(Adam Clayton/ Bono/ Larry Mullen jr./ The Edge)

	  		
Intro:  


E|--12(HA)-------------12(HA)--------------|  
B|--12(HA)-------------12(HA)--------------|  
G|---------------7(HA)--------------7(HA)--|  
D|---------7(HA)-7(HA)--------7(HA)-7(HA)--|  
A|---------7(HA)--------------7(HA)--------|  
E|-----------------------------------------|  

Riff 1, Intro 2, verse 1 and Chorus:  

e|------------------------------------------------------|  
B|-12-12-12-12-12-12---12-12-12--12-12-12-12--12-12-12--|  
G|-11-11-11-11-11-11----9--9-11---9--9--9-11---9--9--9--|  
D|------------------------------------------------------|  
A|------------------------------------------------------|  
E|------------------------------------------------------| (2x)  

e|-----------------------------------------------|  
B|-10-10-10-10-10-10----9-9-10--9-9-9-10---9-9-9-|  
G|--9--9--9--9--9--9----9-9-9---9-9-9--9---9-9-9-|  
D|-----------------------------------------------|  
A|-----------------------------------------------|  
E|-----------------------------------------------|  

e|-------------------------------------------------------|  
B|-10-10-10-10-10-10-----9--9-10---9--9--9--10---9--9--9-|  
G|-11-11-11-11-11-11----11-11-11--11-11-11-11---11-11-11-|  
D|-------------------------------------------------------|  
A|-------------------------------------------------------|  
E|-------------------------------------------------------|  

verse 2:  

e|---------0------------------0---------|  
B|-------------0------------------0-----|  
G|-------8-------8----------6-------6---|  
D|-----9-----------9------7-----------7-|  
A|--------------------------------------|  
E|---7-------------------5--------------| (2x)  

Riff 1 Chorus:  

e|------------------------------------------------------|  
B|-12-12-12-12-12-12---12-12-12--12-12-12-12--12-12-12--|  
G|-11-11-11-11-11-11----9--9-11---9--9--9-11---9--9--9--|  
D|------------------------------------------------------|  
A|------------------------------------------------------|  
E|------------------------------------------------------| (2x)  

e|-----------------------------------------------|  
B|-10-10-10-10-10-10----9-9-10--9-9-9-10---9-9-9-|  
G|--9--9--9--9--9--9----9-9-9---9-9-9--9---9-9-9-|  
D|-----------------------------------------------|  
A|-----------------------------------------------|  
E|-----------------------------------------------|  

e|-------------------------------------------------------|  
B|-10-10-10-10-10-10-----9--9-10---9--9--9--10---9--9--9-|  
G|-11-11-11-11-11-11----11-11-11--11-11-11-11---11-11-11-|  
D|-------------------------------------------------------|  
A|-------------------------------------------------------|  
E|-------------------------------------------------------|  


Solo:  

e|-11-12-13--11-12-13--11-12-13--11-12-13--11--------|  
B|--------------------------------------------12(HA)-|  
G|---------------------------------------------------|  
D|---------------------------------------------------|  
A|---------------------------------------------------|  
E|---------------------------------------------------| (8x)  

Riff 2:  

e|-------------------------------------------------0-------|  
B|---7---7---7---7---7---7---------------------------------|  
G|------------------------------6---6---6------6------6----|  
D|-9---9---9---9---9---9------9---9---9------9---9-------9-|  
A|---------------------------------------------------------|  
E|---------------------------------------------------------|  

e|----14----14----14----14----14----14-----9----9----9----9----9----9-|  
B|-12----12----12----12----12----12-----12---12---12---12---12---12---|  
G|--------------------------------------------------------------------|  
D|--------------------------------------------------------------------|  
A|--------------------------------------------------------------------|  
E|--------------------------------------------------------------------|  

verse 3:  

e|---------0-------------------0---------|  
B|--------------0------------------0-----|  
G|-------8-------------------6-------6---|  
D|-----9-------------------7-----------7-|  
A|---------------------------------------|  
E|---7-------------------5---------------|   

e|---------0------------------0---------|  
B|-------------0------------------0-----|  
G|-------8-------8----------6-------6---|  
D|-----9-----------9------7-----------7-|  
A|--------------------------------------|  
E|---7-------------------5--------------|   

Chorus:  

Guitar 1:  

e|------------------------------------------------------|  
B|-12-12-12-12-12-12---12-12-12--12-12-12-12--12-12-12--|  
G|-11-11-11-11-11-11----9--9-11---9--9--9-11---9--9--9--|  
D|------------------------------------------------------|  
A|------------------------------------------------------|  
E|------------------------------------------------------| (2x)  

e|-----------------------------------------------|  
B|-10-10-10-10-10-10----9-9-10--9-9-9-10---9-9-9-|  
G|--9--9--9--9--9--9----9-9-9---9-9-9--9---9-9-9-|  
D|-----------------------------------------------|  
A|-----------------------------------------------|  
E|-----------------------------------------------|  

e|-------------------------------------------------------|  
B|-10-10-10-10-10-10-----9--9-10---9--9--9--10---9--9--9-|  
G|-11-11-11-11-11-11----11-11-11--11-11-11-11---11-11-11-|  
D|-------------------------------------------------------|  
A|-------------------------------------------------------|  
E|-------------------------------------------------------|  

Guitar 2:  

e|----14----14----14----14----14----14-----9----9----9----9----9----9-|  
B|-12----12----12----12----12----12-----12---12---12---12---12---12---|  
G|--------------------------------------------------------------------|  
D|--------------------------------------------------------------------|  
A|--------------------------------------------------------------------|  
E|--------------------------------------------------------------------|  

		  

See also:

tabs U2 - Bad (solo) tabs U2 - Walk On tabs U2 - Beautiful Day tabs U2 - Satellite Love tabs U2 - Pride (In The Name Of Love) tabs U2 - Still havent found what I looking for
e-chords

Other versions:

tabs Saliva - Pride tabs Seether - Pride tabs Shaaman - Pride tabs Shaman - Pride tabs The Hellacopters - Pride tabs U2 - Pride
auto scroll beats size up size down change color hide chords drawings
tab show chords e-chords YouTube Clip e-chords hide all tabs e-chords go to top tab

share