Turnover

Living Small

Turnover

tabs

by  TERCMORAES

save to print version add songbook text version e-mail correct tuner
chordsukulelecavacokeyboardtabbassdrumsharmonicaflute Guitar Pro
close

there isn't a video lesson for this song

chords

Living Small

	  		
(Guitar 1) 
Intro 
e|------------------------------------------------------| 
B|------10----------------------------------------------| 
G|---------------12--10------13--12--10-----------------| 
D|--10-------13----------13--------------10-------------| 
A|------------------------------------------------------| 
E|------------------------------------------------------| 

e|------------------------------------------------------| 
B|----10------------------------------------------------| 
G|------------12--10------10----------------------------| 
D|--------13----------13--------------------------------| 
A|------------------------------------------------------| 
E|------------------------------------------------------| 

e|------------------------------------------------------| 
B|------10----------------------------------------------| 
G|---------------12--10------13--12--10-----------------| 
D|--10-------13---------13---------------10-------------| 
A|------------------------------------------------------| 
E|------------------------------------------------------| 

e|------------------------------------------------------| 
B|----10------------------------------------------------| 
G|------------12--10------10----------------------------| 
D|--------13----------13--------------------------------| 
A|------------------------------------------------------| 
E|------------------------------------------------------| 

verse 1 
e|------------------------------------------------------| 
B|------------------------------------------------------| 
G|--14------14--12--------------------------------------| 
D|--15--------------15?-13-----------------10/12--10----| 
A|------------------------------------------------------| 
E|------------------------------------------------------| 

e|------------------------------------------------------| 
B|------------------------------------------------------| 
G|--10------14--12-------------------------10----10-----| 
D|--10--------------15?-13--------------------10--------| 
A|------------------------------------------------------| 
E|------------------------------------------------------| 

Chorus 
e|-----------------------------------------------------| 
B|------------10------------10-------------------------| 
G|-----10--12-----12-----12-----12?-10-----------------| 
D|-----------------------------------------------------| 
A|-----------------------------------------------------| 
E|-----------------------------------------------------| 

e|-----------------------------------------------------| 
B|------------10------------10-------------------------| 
G|-----10--12-----12-----12-----12?-10-----------------| 
D|-----------------------------------------------------| 
A|-----------------------------------------------------| 
E|-----------------------------------------------------| 

e|-----------------------------------------------------| 
B|-----10------------10--------------------------------| 
G|---------12--10--------10--12?-10--------------------| 
D|-----------------------------------------------------| 
A|-----------------------------------------------------| 
E|-----------------------------------------------------| 

e|-----------------------------------------------------| 
B|------------10------------10-------------------------| 
G|-----10--12-----12-----12-----12?-10-----------------| 
D|-----------------------------------------------------| 
A|-----------------------------------------------------| 
E|-----------------------------------------------------| 

e|-----------------------------------------------------| 
B|------------10------------10-------------------------| 
G|-----10--12-----12-----12-----12?-10-----------------| 
D|-----------------------------------------------------| 
A|-----------------------------------------------------| 
E|-----------------------------------------------------| 

e|-----------------------------------------------------| 
B|-----10------------10--------------------------------| 
G|---------12--10--------10--12?-10--------------------| 
D|-----------------------------------------------------| 
A|-----------------------------------------------------| 
E|-----------------------------------------------------| 

Post-Chorus 
e|------------------------------------------------------| 
B|------10----------------------------------------------| 
G|---------------12--10------13--12--10-----------------| 
D|--10-------13----------13--------------10-------------| 
A|------------------------------------------------------| 
E|------------------------------------------------------| 

e|------------------------------------------------------| 
B|----10------------------------------------------------| 
G|------------12--10------10----------------------------| 
D|--------13----------13--------------------------------| 
A|------------------------------------------------------| 
E|------------------------------------------------------| 

e|------------------------------------------------------| 
B|------10----------------------------------------------| 
G|---------------12--10------13--12--10-----------------| 
D|--10-------13---------13---------------10-------------| 
A|------------------------------------------------------| 
E|------------------------------------------------------| 

e|------------------------------------------------------| 
B|----10------------------------------------------------| 
G|------------12--10------10----------------------------| 
D|--------13----------13--------------------------------| 
A|------------------------------------------------------| 
E|------------------------------------------------------| 

verse 2 
e|------------------------------------------------------------| 
B|------------------------------------------------------------| 
G|--14------14--12--------------------------------------------| 
D|--15--------------15?-13-----------------10/12--10----------| 
A|------------------------------------------------------------| 
E|------------------------------------------------------------| 

e|------------------------------------------------------------| 
B|------------------------------------------------------------| 
G|--10------14--12---------------10----10---10/12--10---------| 
D|--10--------------15?-13----------10----------------12?-10--| 
A|------------------------------------------------------------| 
E|------------------------------------------------------------| 

Chorus 
e|-----------------------------------------------------| 
B|------------10------------10-------------------------| 
G|-----10--12-----12-----12-----12?-10-----------------| 
D|-----------------------------------------------------| 
A|-----------------------------------------------------| 
E|-----------------------------------------------------| 

e|-----------------------------------------------------| 
B|------------10------------10-------------------------| 
G|-----10--12-----12-----12-----12?-10-----------------| 
D|-----------------------------------------------------| 
A|-----------------------------------------------------| 
E|-----------------------------------------------------| 

e|-----------------------------------------------------| 
B|-----10------------10--------------------------------| 
G|---------12--10--------10--12?-10--------------------| 
D|-----------------------------------------------------| 
A|-----------------------------------------------------| 
E|-----------------------------------------------------| 

e|-----------------------------------------------------| 
B|------------10------------10-------------------------| 
G|-----10--12-----12-----12-----12?-10-----------------| 
D|-----------------------------------------------------| 
A|-----------------------------------------------------| 
E|-----------------------------------------------------| 

e|-----------------------------------------------------| 
B|------------10------------10-------------------------| 
G|-----10--12-----12-----12-----12?-10-----------------| 
D|-----------------------------------------------------| 
A|-----------------------------------------------------| 
E|-----------------------------------------------------| 

e|-----------------------------------------------------| 
B|-----10------------10--------------------------------| 
G|---------12--10--------10--12?-10--------------------| 
D|-----------------------------------------------------| 
A|-----------------------------------------------------| 
E|-----------------------------------------------------| 

Bridge 
(Palm-muted) 
e|------------------------------------------------------| 
B|------------------------------------------------------| 
G|--10--12--12--12--12?-10?-10?-10----------------------| 
D|------------------------------------------------------| 
A|------------------------------------------------------| 
E|------------------------------------------------------| 
   x8 

Chorus 
e|-----------------------------------------------------| 
B|------------10------------10-------------------------| 
G|-----10--12-----12-----12-----12?-10-----------------| 
D|-----------------------------------------------------| 
A|-----------------------------------------------------| 
E|-----------------------------------------------------| 

e|-----------------------------------------------------| 
B|------------10------------10-------------------------| 
G|-----10--12-----12-----12-----12?-10-----------------| 
D|-----------------------------------------------------| 
A|-----------------------------------------------------| 
E|-----------------------------------------------------| 

e|-----------------------------------------------------| 
B|-----10------------10--------------------------------| 
G|---------12--10--------10--12?-10--------------------| 
D|-----------------------------------------------------| 
A|-----------------------------------------------------| 
E|-----------------------------------------------------| 

e|-----------------------------------------------------| 
B|------------10------------10-------------------------| 
G|-----10--12-----12-----12-----12?-10-----------------| 
D|-----------------------------------------------------| 
A|-----------------------------------------------------| 
E|-----------------------------------------------------| 

e|-----------------------------------------------------| 
B|------------10------------10-------------------------| 
G|-----10--12-----12-----12-----12?-10-----------------| 
D|-----------------------------------------------------| 
A|-----------------------------------------------------| 
E|-----------------------------------------------------| 

e|-----------------------------------------------------| 
B|-----10------------10--------------------------------| 
G|---------12--10--------10--12?-10--------------------| 
D|-----------------------------------------------------| 
A|-----------------------------------------------------| 
E|-----------------------------------------------------| 

Outro 
e|------------------------------------------------------| 
B|------10----------------------------------------------| 
G|---------------12--10------13--12--10-----------------| 
D|--10-------13----------13--------------10-------------| 
A|------------------------------------------------------| 
E|------------------------------------------------------| 

e|------------------------------------------------------| 
B|----10------------------------------------------------| 
G|------------12--10------10----------------------------| 
D|--------13----------13--------------------------------| 
A|------------------------------------------------------| 
E|------------------------------------------------------| 

e|------------------------------------------------------| 
B|------10----------------------------------------------| 
G|---------------12--10------13--12--10-----------------| 
D|--10-------13---------13---------------10-------------| 
A|------------------------------------------------------| 
E|------------------------------------------------------| 

e|------------------------------------------------------| 
B|----10------------------------------------------------| 
G|------------12--10------10-----14---------------------| 
D|--------13----------13---------15---------------------| 
A|------------------------------------------------------| 
E|------------------------------------------------------| 

(Guitar 2) 

Intro 
e|-------------------------------------------------| 
B|-------------------------------------------------| 
G|-----10---8--10----8--10-------------------------| 
D|--10---------------------------------------------| 
A|-------------------------------------------------| 
E|-------------------------------------------------| 
         x4 

verse 1 
e|-------------------------------------------------| 
B|--10----------11--10---------10--10--10--11--10--| 
G|---------------------12--10----------------------| 
D|-------------------------------------------------| 
A|-------------------------------------------------| 
E|-------------------------------------------------| 

e|-------------------------------------------------| 
B|--10--10--10--11--10---------10--10--10--11--10--| 
G|---------------------12--10----------------------| 
D|-------------------------------------------------| 
A|-------------------------------------------------| 
E|-------------------------------------------------| 

e|-------------------------------------------------| 
B|-------------------------------------------------| 
G|-------------------------------------------------| 
D|--10/12----10------------------------------------| 
A|-------------------------------------------------| 
E|-------------------------------------------------| 

Chorus 
e|---------------------------------------------------| 
B|---------------------------------------------------| 
G|---------------------------------------------------| 
D|--10/12--10----------------------------------------| 
A|-------------10/12--10/12--10----------8-----------| 
E|-------------------------------10--10-----10-------| 

e|---------------------------------------------------| 
B|---------------------------------------------------| 
G|---------------------------------------------------| 
D|--10/12--10----------------------------------------| 
A|-------------10/12--10/12--10----------8-----------| 
E|-------------------------------10--10--------------| 

e|---------------------------------------------------| 
B|---------------------------------------------------| 
G|---------------------------------------------------| 
D|--10/12--10----------------10----------------------| 
A|-------------10/12--10/12--12--8--10--8------------| 
E|---------------------------------------------------| 

e|---------------------------------------------------| 
B|---------------------------------------------------| 
G|---------------------------------------------------| 
D|--10/12--10----------------------------------------| 
A|-------------10/12--10/12--10----------8-----------| 
E|-------------------------------10--10-----10-------| 

e|---------------------------------------------------| 
B|---------------------------------------------------| 
G|---------------------------------------------------| 
D|--10/12--10----------------------------------------| 
A|-------------10/12--10/12--10----------8-----------| 
E|-------------------------------10--10--------------| 

e|---------------------------------------------------| 
B|---------------------------------------------------| 
G|---------------------------------------------------| 
D|--10/12--10----------------10----------------------| 
A|-------------10/12--10/12--12--8--10--8------------| 
E|---------------------------------------------------| 

verse 2 
e|---------------------------------------------------| 
B|--10----------11--10---------10--10--10--11--10----| 
G|---------------------12--10------------------------| 
D|---------------------------------------------------| 
A|---------------------------------------------------| 
E|---------------------------------------------------| 

e|---------------------------------------------------| 
B|--10--10--10--11--10---------10--10--10--11--10----| 
G|---------------------12--10------------------------| 
D|---------------------------------------------------| 
A|---------------------------------------------------| 
E|---------------------------------------------------| 

e|---------------------------------------------------| 
B|---------------------------------------------------| 
G|---------------------------------------------------| 
D|--10/12----10--------------------------------------| 
A|---------------10/12---10--------------------------| 
E|---------------------------------------------------| 

Chorus 
e|---------------------------------------------------| 
B|---------------------------------------------------| 
G|---------------------------------------------------| 
D|--10/12--10----------------------------------------| 
A|-------------10/12--10/12--10----------8-----------| 
E|-------------------------------10--10-----10-------| 

e|---------------------------------------------------| 
B|---------------------------------------------------| 
G|---------------------------------------------------| 
D|--10/12--10----------------------------------------| 
A|-------------10/12--10/12--10----------8-----------| 
E|-------------------------------10--10--------------| 

e|---------------------------------------------------| 
B|---------------------------------------------------| 
G|---------------------------------------------------| 
D|--10/12--10----------------10----------------------| 
A|-------------10/12--10/12--12--8--10--8------------| 
E|---------------------------------------------------| 

e|---------------------------------------------------| 
B|---------------------------------------------------| 
G|---------------------------------------------------| 
D|--10/12--10----------------------------------------| 
A|-------------10/12--10/12--10----------8-----------| 
E|-------------------------------10--10-----10-------| 

e|---------------------------------------------------| 
B|---------------------------------------------------| 
G|---------------------------------------------------| 
D|--10/12--10----------------------------------------| 
A|-------------10/12--10/12--10----------8-----------| 
E|-------------------------------10--10--------------| 

e|---------------------------------------------------| 
B|---------------------------------------------------| 
G|---------------------------------------------------| 
D|--10/12--10----------------10----------------------| 
A|-------------10/12--10/12--12--8--10--8------------| 
E|---------------------------------------------------| 

Bridge 
e|---------------------------------------------------| 
B|---------------------------------------------------| 
G|---------------------------------------------------| 
D|--12--10------10----------10-----------------------| 
A|----------12------10--12------12-------------------| 
E|---------------------------------------------------| 
    x3 

Chorus 
e|---------------------------------------------------| 
B|---------------------------------------------------| 
G|---------------------------------------------------| 
D|--10/12--10----------------------------------------| 
A|-------------10/12--10/12--10----------8-----------| 
E|-------------------------------10--10-----10-------| 

e|---------------------------------------------------| 
B|---------------------------------------------------| 
G|---------------------------------------------------| 
D|--10/12--10----------------------------------------| 
A|-------------10/12--10/12--10----------8-----------| 
E|-------------------------------10--10--------------| 

e|---------------------------------------------------| 
B|---------------------------------------------------| 
G|---------------------------------------------------| 
D|--10/12--10----------------10----------------------| 
A|-------------10/12--10/12--12--8--10--8------------| 
E|---------------------------------------------------| 

e|---------------------------------------------------| 
B|---------------------------------------------------| 
G|---------------------------------------------------| 
D|--10/12--10----------------------------------------| 
A|-------------10/12--10/12--10----------8-----------| 
E|-------------------------------10--10-----10-------| 

e|---------------------------------------------------| 
B|---------------------------------------------------| 
G|---------------------------------------------------| 
D|--10/12--10----------------------------------------| 
A|-------------10/12--10/12--10----------8-----------| 
E|-------------------------------10--10--------------| 

e|---------------------------------------------------| 
B|---------------------------------------------------| 
G|---------------------------------------------------| 
D|--10/12--10----------------10----------------------| 
A|-------------10/12--10/12--12--8--10--8------------| 
E|---------------------------------------------------| 

Outro 
e|---------------------------------------------------| 
B|---------------------------------------------------| 
G|-----10---8--10----8--10---------------------------| 
D|--10-----------------------------------------------| 
A|---------------------------------------------------| 
E|---------------------------------------------------| 
         x4 


************************* 

|  h   hammer-on 
|  /   slide up  

************************* 
		  

See also:

tabs Misc Computer Games - Legend Of Zelda - Ocarina Of Time - Song Of Storms Windmill Hut Theme tabs Misc Computer Games - Undertale - Dogsong tabs Misc Computer Games - Sea Of Thieves - Becalmed Hurdy-gurdy tabs Michael Angelo Batio - A New Day tabs Misc Computer Games - League Of Legends - Tahm Kench Theme tabs Marco Di Mauro - Nada De Nada
e-chords

Other versions:

tabs Turnover - Living Small
auto scroll beats size up size down change color hide chords drawings
tab show chords e-chords YouTube Clip e-chords hide all tabs e-chords go to top tab

share