Touché Amoré

And Now Its Happening In Mine

Touché Amoré

tabs

by  EDSOOLIVEIRA

save to print version add songbook text version e-mail correct tuner
chordsukulelecavacokeyboardtabbassdrumsharmonicaflute Guitar Pro
close

there isn't a video lesson for this song

chords

And Now Its Happening In Mine

	  		 

eb|---------------------------------------------------------------------------| 
Bb|---------------------------------------------------------------------------| 
Gb|---------------------------------------------------------------------------| 
Db|---10------------------------------------------10--------------------------| 
Ab|---7--x12---/------10--x6---/------12--x6------7--x12---/------10---/---12-| 
C#|---7--------/------10-------/------12----------7--------/------10---/---12-| 

eb|---------------------------------------------------------------------------| 
Bb|---------------------------------------------------------------------------| 
Gb|---17----------/---------16----------/----------12-------------------------| 
Db|---x--x6-----------------x--x6------------------x--x10---------x2----------| 
Ab|---15----------/---------14----------/----------10-------------------------| 
C#|---------------------------------------------------------------------------| 

eb|---------------------------------------------------------------------------| 
Bb|---------------------------------------------------------------------------| 
Gb|---------------------------------------------------------17----------------| 
Db|---10----------------------------10----------------------x--xbillion-------| 
Ab|---7--x4---\------5-------/------7--x4------x2-----------15----------------| 
C#|---7-------\------5-------/------7-----------------------------------------| 

eb|--------------------------------3p0---------------------3/5p0--------------| 
Bb|-------------1p0-----------------------------------------------------------| 
Gb|-----2------------------2------------x3---------2---------------(whole x2)-| 
Db|---------2------------------2-----------------------2----------------------| 
Ab|-0------------------0-----------------------0------------------------------| 
C#|---------------------------------------------------------------------------| 

eb|---------------------------------------0-----------------------------------| 
Bb|-------------1p0-------------------0---------------------------------------| 
Gb|-----2-----------------2-------2-------------------x2----------------------| 
Db|---------2-----------------2-----------------------------------------------| 
Ab|-0-----------------0-------------------------------------------------------| 
C#|---------------------------------------------------------------------------| 

eb|---------------------------------------------------------------------------| 
Bb|---------------------------------------------------------------------------| 
Gb|---------------------------------------------------------------------------| 
Db|---10---------------------------10-----------------------------------------| 
Ab|---7--x4---\------5------/------7--x4---x2------/------10------/------12---| 
C#|---7-------\------5------/------7---------------/------10------/------12---| 

eb|---------------------------------------------------------------------------| 
Bb|---------------------------------------------------------------------------| 
Gb|---------------------------------------------------------------------------| 
Db|---10---------------------------10---------10------------------------------| 
Ab|---7--x4---\------5------/------7--x4------7--x4------\------5--x2---------| 
C#|---7-------\------5------/------7----------7----------\------5-------------| 


 
		  

See also:

tabs Audioslave - Cochise tabs Red Hot Chili Peppers - Can't Stop (ver. 2) tabs Red Hot Chili Peppers - Suck My Kiss tabs Red Hot Chili Peppers - Californication tabs Incubus - Talk show on mute tabs Paramore - Misery Business (tablaturas)
e-chords

Other versions:

tabs Touché Amoré - And Now Its Happening In Mine
auto scroll beats size up size down change color hide chords drawings
tab show chords e-chords YouTube Clip e-chords hide all tabs e-chords go to top tab

share with facebook