Thousand Foot Krutch

Set Me On Fire

Thousand Foot Krutch

tabs

by  TARIKIKE

save to print version add songbook text version e-mail correct tuner
chordsukulelecavacokeyboardtabbassdrumsharmonicaflute Guitar Pro
close

there isn't a video lesson for this song

chords

Set Me On Fire

	  		

Tuning: Drop D 

Intro(0:00-0:13) 
Strings (x2) 
e|---------------------------------------------------------------------------| 
B|---------------------------------------------------------------------------| 
G|---------------------------------------------------------------------------| 
d|---------------------------------------------------------------------------| 
A|-8-8-4-4-8-8-4-4-8-8-4-4-8-8-6--8-8-4-4-8-8-4-4-8-8-4-4-9-9-8--------------| 
D|---------------------------------------------------------------------------| 

Verse I(0:13-0:27) 
Strings (x2) 
e|---------------------------------------------------------------------------| 
B|---------------------------------------------------------------------------| 
G|---------------------------------------------------------------------------| 
d|---------------------------------------------------------------------------| 
A|-8-8-4-4-8-8-4-4-8-8-4-4-8-8-6--8-8-4-4-8-8-4-4-8-8-4-4-9-9-8--------------| 
D|---------------------------------------------------------------------------| 

Rhythm Guitar (Plays at 0:26)(During Verse II, it plays at 1:48) 
e|---------------------------------------------------------------------------| 
B|---------------------------------------------------------------------------| 
G|---------------------------------------------------------------------------| 
d|--6-6-6--------------------------------------------------------------------| 
A|--6-6-6--------------------------------------------------------------------| 
D|--6-6-6--------------------------------------------------------------------| 

Pre-Chorus I(0:27-0:54) 
Strings (x4) 
e|---------------------------------------------------------------------------| 
B|---------------------------------------------------------------------------| 
G|---------------------------------------------------------------------------| 
d|---------------------------------------------------------------------------| 
A|-8-8-4-4-8-8-4-4-8-8-4-4-8-8-6--8-8-4-4-8-8-4-4-8-8-4-4-9-9-8--------------| 
D|---------------------------------------------------------------------------| 

Lead Guitar (Starts at 0:40) 
e|---------------------------------------------------------------------------| 
B|---------------------------------------------------------------------------| 
G|-10--------10-11---------10--------10-8------------------------------------| 
d|-----11----------------------11--------------------------------------------| 
A|---------------------------------------------------------------------------| 
D|---------------------------------------------------------------------------| 

e|---------------------------------------------------------------------------| 
B|---------------------------------------------------------------------------| 
G|-10--------10-11---------10--------10-8---6---6-8-6-8-6--------------------| 
d|-----11----------------------11--------------------------------------------| 
A|---------------------------------------------------------------------------| 
D|---------------------------------------------------------------------------| 

Rhythm Guitar (Plays at 0:46) 
e|---------------------------------------------------------------------------| 
B|---------------------------------------------------------------------------| 
G|---------------------------------------------------------------------------| 
d|--6-6-6--------------------------------------------------------------------| 
A|--6-6-6--------------------------------------------------------------------| 
D|--6-6-6--------------------------------------------------------------------| 

Chorus I(0:54-1:22) 
Lead Guitar 
e|---------------------------------------------------------------------------| 
B|---------------------------------------------------------------------------| 
G|-6--------6--------3--------3----------------------------------------------| 
d|---------------------------------------------------------------------------| 
A|-4--------6--------1--------1----------------------------------------------| 
D|---------------------------------------------------------------------------| 

e|---------------------------------------------------------------------------| 
B|---------------------------------------------------------------------------| 
G|-6--------6--------3--------3----------------------------------------------| 
d|---------------------------------------------------------------------------| 
A|-4--------6--------1--------1----------------------------------------------| 
D|---------------------------------------------------------------------------| 

e|---------------------------------------------------------------------------| 
B|-6-6-6-6-6-6-6-6-7-7-7-7-7-7-7-7-2-2-2-2-2-2-2-2-2-2-2-2-2-2-2-2-----------| 
G|---------------------------------------------------------------------------| 
d|---------------------------------------------------------------------------| 
A|---------------------------------------------------------------------------| 
D|---------------------------------------------------------------------------| 

e|---------------------------------------------------------------------------| 
B|-6-6-6-6-6-6-6-6-7-7-7-7-7-7-7-7-2-2-2-2-2-2-2-2-2-2-2-2-2-2-2-2-----------| 
G|---------------------------------------------------------------------------| 
d|---------------------------------------------------------------------------| 
A|---------------------------------------------------------------------------| 
D|---------------------------------------------------------------------------| 

Post-Chorus I(1:22-1:36) 
Strings (x2) 
e|---------------------------------------------------------------------------| 
B|---------------------------------------------------------------------------| 
G|---------------------------------------------------------------------------| 
d|---------------------------------------------------------------------------| 
A|-8-8-4-4-8-8-4-4-8-8-4-4-8-8-6--8-8-4-4-8-8-4-4-8-8-4-4-9-9-8--------------| 
D|---------------------------------------------------------------------------| 

Verse II(1:36-1:49)(Same as Verse I for Strings and Rhythm Guitar) 
Piano  
e|---------------------------------------------------------------------------| 
B|---------------------------------------------------------------------------| 
G|-10--------10-11---------10--------10-8------------------------------------| 
d|-----11----------------------11--------------------------------------------| 
A|---------------------------------------------------------------------------| 
D|---------------------------------------------------------------------------| 

e|---------------------------------------------------------------------------| 
B|---------------------------------------------------------------------------| 
G|-10--------10-11---------10------------------------------------------------| 
d|-----11----------------------11--------------------------------------------| 
A|---------------------------------------------------------------------------| 
D|---------------------------------------------------------------------------| 

Pre-Chorus II(1:49-2:16) 
Strings (x4) 
e|---------------------------------------------------------------------------| 
B|---------------------------------------------------------------------------| 
G|---------------------------------------------------------------------------| 
d|---------------------------------------------------------------------------| 
A|-8-8-4-4-8-8-4-4-8-8-4-4-8-8-6--8-8-4-4-8-8-4-4-8-8-4-4-9-9-8--------------| 
D|---------------------------------------------------------------------------| 

Piano (x4) 
e|---------------------------------------------------------------------------| 
B|---------------------------------------------------------------------------| 
G|-10--------10-11---------10--------10-8------------------------------------| 
d|-----11----------------------11--------------------------------------------| 
A|---------------------------------------------------------------------------| 
D|---------------------------------------------------------------------------| 

Lead Guitar 
e|---------------------------------------------------------------------------| 
B|---------------------------------------------------------------------------| 
G|-10--------10-11---------10--------10-8------------------------------------| 
d|-----11----------------------11--------------------------------------------| 
A|---------------------------------------------------------------------------| 
D|---------------------------------------------------------------------------| 

e|---------------------------------------------------------------------------| 
B|---------------------------------------------------------------------------| 
G|-10--------10-11---------10--------10-8---6---6-8-6-8-6--------------------| 
d|-----11----------------------11--------------------------------------------| 
A|---------------------------------------------------------------------------| 
D|---------------------------------------------------------------------------| 

e|---------------------------------------------------------------------------| 
B|---------------------------------------------------------------------------| 
G|-10--------10-11---------10--------10-8------------------------------------| 
d|-----11----------------------11--------------------------------------------| 
A|---------------------------------------------------------------------------| 
D|---------------------------------------------------------------------------| 

e|---------------------------------------------------------------------------| 
B|---------------------------------------------------------------------------| 
G|-10--------10-11---------10--------10-8---6---6-8-6-8-6--------------------| 
d|-----11----------------------11--------------------------------------------| 
A|---------------------------------------------------------------------------| 
D|---------------------------------------------------------------------------| 

Rhythm Guitar (Plays at 2:02 and 2:09) 
e|---------------------------------------------------------------------------| 
B|---------------------------------------------------------------------------| 
G|---------------------------------------------------------------------------| 
d|--6-6-6--------------------------------------------------------------------| 
A|--6-6-6--------------------------------------------------------------------| 
D|--6-6-6--------------------------------------------------------------------| 

Chorus II(2:16-2:44)(Same for Lead Guitar as it is in Chorus I) 
Rhythm Guitar (Starts at 2:31) 
e|---------------------------------------------------------------------------| 
B|---------------------------------------------------------------------------| 
G|-6------/-8------\-3-------/-6------/-8------\-3---------------------------| 
d|-6-(x8)-/-8-(x8)-\-3-(x16)-/-6-(x8)-/-8-(x8)-\-3-(x16)---------------------| 
A|-4------/-6------\-1-------/-4------/-6------\-1---------------------------| 
D|---------------------------------------------------------------------------| 

Bridge(2:44-3:25) 
Rhythm Guitar (Starts at 2:58) 
e|---------------------------------------------------------------------------| 
B|---------------------------------------------------------------------------| 
G|---------------------------------------------------------------------------| 
d|-x-------------------------------------------------------------------------| 
A|-x-(x128)------------------------------------------------------------------| 
D|-x-------------------------------------------------------------------------| 

Lead Guitar (x2)(Starts at 3:11) 
e|---------------------------------------------------------------------------| 
B|---------------------------------------------------------------------------| 
G|------10-------------6------6------10-------------8-------6----------------| 
d|---11------11------6-----6------11------11------6-------6------------------| 
A|-9-------------9-4------------9-------------9-4-------4--------------------| 
D|---------------------------------------------------------------------------| 

Outroduction(3:25-3:48) 
Lead Guitar 
e|---------------------------------------------------------------------------| 
B|---------------------------------------------------------------------------| 
G|------10-------------6------6------10-------------8-------6----------------| 
d|---11------11------6-----6------11------11------6-------6------------------| 
A|-9-------------9-4------------9-------------9-4-------4--------------------| 
D|---------------------------------------------------------------------------| 

e|---------------------------------------------------------------------------| 
B|---------------------------------------------------------------------------| 
G|------10-------------6------6------10-------------8-------6----------------| 
d|---11------11------6-----6------11------11------6-------6------------------| 
A|-9-------------9-4------------9-------------9-4-------4--------------------| 
D|---------------------------------------------------------------------------| 

e|---------------------------------------------------------------------------| 
B|---------------------------------------------------------------------------| 
G|-6-------------------------------------------------------------------------| 
d|-6-(Let ring)--------------------------------------------------------------| 
A|-4-------------------------------------------------------------------------| 
D|---------------------------------------------------------------------------| 

************************************ 

| /   slide up 
| \   slide down 
| x   Mute note 

************************************ 
		  

Full key step upFull key step up
Half key step upHalf key step up
Half key step downHalf key step down
Full key step downFull key step down
hide glossary

See also:

tabs Placebo - Without you I'm Nothing tabs Kelly Clarkson - Since u been gone tabs Maroon 5 - She will be loved (intro) tabs Cyndi Lauper - Time After Time tabs Pink - Who knew tabs Black Eyed Peas - My humps
e-chords

Other versions:

tabs Flyleaf - Set Me On Fire tabs Thousand Foot Krutch - Set Me On Fire tabs Type O Negative - Set Me On Fire
auto scroll beats size up size down change color hide chords drawings
tab show chords e-chords YouTube Clip e-chords hide all tabs e-chords go to top tab

share