Thousand Foot Krutch

A Different Kind Of Dynamite

Thousand Foot Krutch

tabs

by  GUSTSILVA

save to print version add songbook text version e-mail correct tuner
chordsukulelecavacokeyboardtabbassdrumsharmonicaflute Guitar Pro
close

there isn't a video lesson for this song

chords

A Different Kind Of Dynamite

	  		
 Intro 

e|----------------------------------------------------------------------| 
B|----------------------------------------------------------------------| 
G|---------------------------2-2-----2----------------------------------| 
D|---------------------------2-2-2-2-2----------------------------------| 
A|-------------------------------2-2------------------------------------| 
D|--2p0-2p0-5qb--2p0-2p0-2~-------------0h2p0-7qb-2p0-2p0-2p0--2h5-2p0--| 
                             harmonics 
                                                             PM-------| 
e|----------------------------------------------------------------------| 
B|----------------------------------------------------------------------| 
G|---------------------------2-2-2-2-2----------------------------------| 
D|---------------------------2-2-2-2-2----------------------------------| 
A|----------------------------------------------------------------------| 
D|--2p0-2p0-5qb--2p0-2p0-2~-------------0h2p0-7qb-2p0-2p0-2p0--2-5-2-0--| 
                             harmonics 
                                                            PM-------| 
e|----------------------------------------------------------------------| 
B|---------------------------5-5-5-5------------------------------------| 
G|---------------------------5-5-5-5------------------------------------| 
D|----------------------------------------------------------------------| 
A|--2p0-2p0--5--2p0-2p0--2-------------0h2p0--7--2p0-2p0-2p0------------| 
D|--2p0-2p0--5--2p0-2p0--2-------------0h2p0--7--2p0-2p0-2p0--2-5-2-0---| 
                            harmonics 
                                                             
e|----------------------------------------------------------------------| 
B|---------------------------5-5-5-5------------------------------------| 
G|---------------------------5-5-5-5------------------------------------| 
D|----------------------------------------------------------------------| 
A|--2p0-2p0--5--2p0-2p0--2-------------0h2p0--7--2p0-2p0-2p0--2-5-2-0---| 
D|--2p0-2p0--5--2p0-2p0--2-------------0h2p0--7--2p0-2p0-2p0--2-5-2-0---| 
                            harmonics 


 Verse 

  PM---------------------|  PM-------------------| 
e|-------------------------------------------------| 
B|-------------------------------------------------| 
G|-------------------------------------------------| 
D|-------------------------------------------------| 
A|-------------------------------------------------| 
D|--2-0-2-0--5--2-0-2-0-2-----0-2-0--7--2-0-2-0-2--| 

  PM---------------------|  PM--------| 
e|-----------------------------------------------------------| 
B|-----------------------------------------------------------| 
G|-----------------------------------------------------------| 
D|-----------------------------------------------------------| 
A|-----------------------------------------------------------| 
D|--2-0-2-0--5--2-0-2-0-2-----0-2-0--7--X-X-2p0-2p0-2h5-2p0--| 


 Pre-Chorus 

e|-----------------------------------------------------------| 
B|-----------------------------------------------------------| 
G|-----------------------------------------------------------| 
D|-----------------------------------------------------------| 
A|--0--2--2--0-2--0-2--2--5\----0--2--2--0-2--0-2--X-X-X-X---| 
D|--0--2--2--0-2--0-2--2--5\----0--2--2--0-2--0-2--X-X-X-X---| 

e|-----------------------------------------------------------| 
B|-----------------------------------------------------------| 
G|-----------------------------------------------------------| 
D|-----------------------------------------------------------| 
A|--0--2--2--0-2--0-2--2--5\----0--------7---------X-X-X-7\--| 
D|--0--2--2--0-2--0-2--2--5\----0--------7---------X-X-X-7\--| 


 Chorus 

e|----------------------------------------------------------------| 
B|----------------------------------------------------------------| 
G|----------------------------------------------------------------| 
D|----------------------------------------------------------------| 
A|---2---5---7---5~~---5-7p5-2p0--X-X--2---5---7---5-----5---5-5--| 
D|---2---5---7-----------7p5-2p0--X-X--2---5---7---0-----0---0-0--| 

e|----------------------------------------------------------------| 
B|----------------------------------------------------------------| 
G|----------------------------------------------------------------| 
D|----------------------------------------------------------------| 
A|-X-2---5---7---5~~---5-5---2p0-----X-2---5---7\--7-----12\------| 
D|-X-2---5---7------------h7-2p0-----X-2---5---7\--7-----12\------| 

                                                            PM-------| 
e|----------------------------------------------------------------------| 
B|---------------------------5-5-5-5------------------------------------| 
G|---------------------------5-5-5-5------------------------------------| 
D|----------------------------------------------------------------------| 
A|--2p0-2p0--5--2p0-2p0--2-------------0h2p0--7--2p0-2p0-2p0------------| 
D|--2p0-2p0--5--2p0-2p0--2-------------0h2p0--7--2p0-2p0-2p0--2-5-2-0---| 
                            harmonics 
                                                             
e|----------------------------------------------------------------------| 
B|---------------------------5-5-5-5------------------------------------| 
G|---------------------------5-5-5-5------------------------------------| 
D|----------------------------------------------------------------------| 
A|--2p0-2p0--5--2p0-2p0--2-------------0h2p0--7--2p0-2p0-2p0--2-5-2-0---| 
D|--2p0-2p0--5--2p0-2p0--2-------------0h2p0--7--2p0-2p0-2p0--2-5-2-0---| 
                            harmonics 

  
Verse 

  PM---------------------|  PM-------------------| 
e|-------------------------------------------------------| 
B|-------------------------------------------------------| 
G|-------------------------------------------------------| 
D|-------------------------------------------------------| 
A|-------------------------------------------------------| 
D|--2-0-2-0--5--2-0-2-0-2-----0-2-0--7--2-0-2-0-2---12\--| 

  PM-------------------|    PM-----------------| 
e|-----------------------------------------------------------| 
B|-----------------------------------------------------------| 
G|-----------------------5-----------------------------------| 5's  are 
D|-----------------------5-----------------------------------| harmonic 
A|-----------------------------------7-----------------------| 
D|--2-0-2-0--5--2-0-2-0-------0-2-0--7--2-0-2-0-2p0-2h5-2p0--| 


 Pre-Chorus 

e|-----------------------------------------------------------| 
B|-----------------------------------------------------------| 
G|-----------------------------------------------------------| 
D|-----------------------------------------------------------| 
A|--0--2--2--0-2--0-2--2--5\----0--2--2--0-2--0-2--X-X-X-X---| 
D|--0--2--2--0-2--0-2--2--5\----0--2--2--0-2--0-2--X-X-X-X---| 

e|-----------------------------------------------------------| 
B|-----------------------------------------------------------| 
G|-----------------------------------------------------------| 
D|-----------------------------------------------------------| 
A|--0--2--2--0-2--0-2--2--5\----0--------7---------X-X-X-7\--| 
D|--0--2--2--0-2--0-2--2--5\----0--------7---------X-X-X-7\--| 


 Chorus 

e|----------------------------------------------------------------| 
B|----------------------------------------------------------------| 
G|----------------------------------------------------------------| 
D|----------------------------------------------------------------| 
A|---2---5---7---5~~---5-7p5-2p0--X-X--2---5---7---5-----5---5-5--| 
D|---2---5---7-----------7p5-2p0--X-X--2---5---7---0-----0---0-0--| 

e|----------------------------------------------------------------| 
B|----------------------------------------------------------------| 
G|----------------------------------------------------------------| 
D|----------------------------------------------------------------| 
A|-X-2---5---7---5~~---5-5---2p0-----X-2---5---7\--7-----12\------| 
D|-X-2---5---7------------h7-2p0-----X-2---5---7\--7-----12\------| 


 Bridge 
                          
e|--------------------------------------------------| 
B|--------------------------------------------------| 
G|--------------------------------------------------| 
D|--------------------------------------------------| 
A|--2---2---2----2---------2---2---2--5~~-----------| 
D|--2---2---2----2---------2---2---2-------2h5-2p0--| 

e|--------------------------------------------| 
B|--------------------------------------------| 
G|--------------------------------------------| 
D|--------------------------------------------| 
A|--2---2---2--------2---2---2------5--5--5\--| 
D|--2---2---2--------2---2---2--7p5-----------| 


 Solo 

e|------------------------------------------------------------------| 
B|------------------------------------------------------------------| 
G|------------------------------------------------------------------| 
D|--2p0-------------------------------------------------------------| 
A|------2p0---------------------------------0-----------------------| 
D|----------2---2p0-2p0-2---X-X-X-X---0h2p0----2p0-2p0-2p0-2h5-2p0--| 
                                                                      SOLO RHYTHM 
e|------------------------------------------------------------------| 
B|------------------------------------------------------------------| 
G|------------------------------------------------------------------| 
D|--2p0-------------------------------------------------------------| 
A|------2p0---------------------------------0-----------------------| 
D|----------2---2p0-2p0-2---X-X-X-X---0h2p0----2p0-2p0-2----X-X-X-X-| 



e|---------------------------------------------------------------------------| 
B|--10fb---10fb---10fb---10fbr-8~~~------fpbr10---fpbr10---fpbr10---10fb~~---| 
G|---------------------------------------------------------------------------| 
D|---------------------------------------------------------------------------| 
A|---------------------------------------------------------------------------| 
D|---------------------------------------------------------------------------| 
                                                                               SOLO LEAD 
e|---------------------------------------------------------------------------| 
B|--13fb-12~~--13fb-12~~--13fb-12~~\10-8~---------8\6--10\8--12\8---8/22-----| 
G|-----------------------------------------9\--------------------------------| 
D|---------------------------------------------------------------------------| 
A|---------------------------------------------------------------------------| 
D|---------------------------------------------------------------------------| 



Pre-Chorus 

e|-----------------------------------------------------------| 
B|-----------------------------------------------------------| 
G|-----------------------------------------------------------| 
D|-----------------------------------------------------------| 
A|--0--2--2--0-2--0-2--2--5\----0--2--2--0-2--0-2--X-X-X-X---| 
D|--0--2--2--0-2--0-2--2--5\----0--2--2--0-2--0-2--X-X-X-X---| 

e|-----------------------------------------------------------| 
B|-----------------------------------------------------------| 
G|-----------------------------------------------------------| 
D|-----------------------------------------------------------| 
A|--0--2--2--0-2--0-2--2--5\----0--------7-------------------| 
D|--0--2--2--0-2--0-2--2--5\----0--------7---------5-7-7-5---| 

e|-----------------------------------------------------------| 
B|-----------------------------------------------------------| 
G|-----------------------------------------------------------| 
D|-----------------------------------------------------------| 
A|--0--2--2--0-2--0-2--2--5\----0--2--2--0-2--0-2--X-X-X-X---| 
D|--0--2--2--0-2--0-2--2--5\----0--2--2--0-2--0-2--X-X-X-X---| 

e|-----------------------------------------------------------| 
B|-----------------------------------------------------------| 
G|-----------------------------------------------------------| 
D|-----------------------------------------------------------| 
A|--0--2--2--0-2--0-2--2--5\----0--------7-------------------| 
D|--0--2--2--0-2--0-2--2--5\----0--------7---------X-X-X-7\--| 



 Outro 

e|----------------------------------------------------------------| 
B|----------------------------------------------------------------| 
G|----------------------------------------------------------------| 
D|----------------------------------------------------------------| 
A|---2---5---7---5~~---5-7p5-2p0--X-X--2---5---7---5-----5---5-5--| 
D|---2---5---7-----------7p5-2p0--X-X--2---5---7---0-----0---0-0--| 

e|----------------------------------------------------------------| 
B|----------------------------------------------------------------| 
G|----------------------------------------------------------------| 
D|----------------------------------------------------------------| 
A|-X-2---5---7---5~~---5-5---2p0-----X-2---5---7\--7-----12\------| 
D|-X-2---5---7------------h7-2p0-----X-2---5---7\--7-----12\------| 



************************************ 

| x   Dead note 
| h   Hammer-on 
| p   Pull-off 
| r   Release 
| b   Bend 
| br  Bend release 
| pb  Pre-bend 
| pbr Pre-bend release 
| /   Slide up 
| \   Slide down 
| ~   Vibrato 
| PM  Palm mute 


************************************ 
		  

See also:

tabs Placebo - Without you I'm Nothing tabs Kelly Clarkson - Since u been gone tabs Maroon 5 - She will be loved (intro) tabs Cyndi Lauper - Time After Time tabs Pink - Who knew tabs Black Eyed Peas - My humps
e-chords

Other versions:

tabs Thousand Foot Krutch - A Different Kind Of Dynamite
auto scroll beats size up size down change color hide chords drawings
tab show chords e-chords YouTube Clip e-chords hide all tabs e-chords go to top tab

share