There For Tomorrow

Wish You Away

There For Tomorrow

tabs

by  CARLLUZ

save to print version add songbook text version e-mail correct tuner
chordsukulelecavacokeyboardtabbassdrumsharmonicaflute Guitar Pro
close

there isn't a video lesson for this song

chords

Wish You Away

	  		Tabbed by: Joshua Garcia ([email protected]) 

Tabs for the song: Wish You Away by There For Tomorrow 
Please rate and let me know if you have any corrections. Thank you. 


Tuning: Drop #C (C# G# C# F# A# D#) 


Intro 
Guitar 1 (Left): 
D#||--------------------------------------------| 
A#||--------------------------------------------| 
F#||--------------------------------------------| 
C#||--777777777777777777777777-5555555555-//\\--| 
G#||--777777777777777777777777-5555555555-//\\--| 
C#||--777777777777777777777777-5555555555-//\\--| 


Guitar 2 (Right): 
D#||--------------------------------------------| 
A#||--888888888888888888888888-8888888888-------| 
F#||--xxxxxxxxxxxxxxxxxxxxxxxx-xxxxxxxxxx-------| 
C#||--777777777777777777777777-5555555555-//\\--| 
G#||--777777777777777777777777-5555555555-//\\--| 
C#||--777777777777777777777777-5555555555-//\\--| 


Guitar 1/2: 
D#||----------------------------| 
A#||----------------------------| 
F#||----------------------------| 
C#||--3-3---5--5-3-3------------| 
G#||--3-3--------3-3---x--xxxx--| 
C#||--3-3--------3-3---x--xxxx--| 


Guitar 1: 
D#||--------------------------------------------| 
A#||--------------------------------------------| 
F#||--------------------------------------------| 
C#||--777777777777777777777777-5555555555-//\\--| 
G#||--777777777777777777777777-5555555555-//\\--| 
C#||--777777777777777777777777-5555555555-//\\--| 


Guitar 2: 
D#||--------------------------------------------| 
A#||--888888888888888888888888-8888888888-------| 
F#||--xxxxxxxxxxxxxxxxxxxxxxxx-xxxxxxxxxx-------| 
C#||--777777777777777777777777-5555555555-//\\--| 
G#||--777777777777777777777777-5555555555-//\\--| 
C#||--777777777777777777777777-5555555555-//\\--| 


Guitar 1/2: 
D#||--------------------------| 
A#||--------------------------| 
F#||--------------------------| 
C#||--3-3---5--5-3-3---5/9-9--| 
G#||--3-3--------3-3----------| 
C#||--3-3--------3-3----------| 



Verse 
Guitar 1: 
D#||-------------------------------------------------------------------------| 
A#||--13-13-13-12-12-12-8-8-8/10-10-10-13-13-13-12-12-12-/17-17-17-17-17-17--| 
F#||-------------------------------------------------------------------------| 
C#||-------------------------------------------------------------------------| x3 
G#||-------------------------------------------------------------------------| 
C#||-------------------------------------------------------------------------| 


D#||--------------------------------------12----12----12----10----10----10-----| 
A#||--10----10----10----12----12----12-------13----13----13----13----13----13--| 
F#||-----12----12----12----12----12----12--------------------------------------| 
C#||---------------------------------------------------------------------------| 
G#||---------------------------------------------------------------------------| 
C#||---------------------------------------------------------------------------| 



Chorus 
Guitar 1: 
D#||--------------------------------------12----12----12----10----10----10-----| 
A#||--10----10----10----12----12----12-------13----13----13----13----13----13--| 
F#||-----12----12----12----12----12----12--------------------------------------| 
C#||---------------------------------------------------------------------------| 
G#||---------------------------------------------------------------------------| 
C#||---------------------------------------------------------------------------| 


D#||--15----15----------15----15-----------------------------------------------| 
A#||-----13----13----13----13----13----13-12----12----12----15----15----15-----| 
F#||--------------14----------------14-------12----12----12----12----12----12--| 
C#||---------------------------------------------------------------------------| x2 
G#||---------------------------------------------------------------------------| 
C#||---------------------------------------------------------------------------| 


Guitar 2: 
D#||------------------------------------------------------------------| 
A#||------------------------------------------------------------------| 
F#||------------------------------------------------------------------| 
C#||--3--33333--3333-5--5555-5--5555-7--7777-2--2222-3--3333-3--3333--| 
G#||--3--33333--3333-5--5555-5--5555-7--7777-2--2222-3--3333-3--3333--| 
C#||--3--33333--3333-5--5555-5--5555-7--7777-2--2222-3--3333-3--3333--| 


D#||-----------------------------------------------------------------| 
A#||-----------------------------------------------------------------| 
F#||-----------------------------------------------------------------| 
C#||--3--33333--3333-5--5555-5--5555-7--7777-2--2222-3--3333-555555--| 
G#||--3--33333--3333-5--5555-5--5555-7--7777-2--2222-3--3333-555555--| 
C#||--3--33333--3333-5--5555-5--5555-7--7777-2--2222-3--3333-555555--| 


Guitar 1: 
D#||---------------------------------------------------------| 
A#||--------12-13-12----------12-13-12----------12-13-12-----| 
F#||--12-14----------14-12-14----------14-12-14----------14--| 
C#||---------------------------------------------------------| 
G#||---------------------------------------------------------| 
C#||---------------------------------------------------------| 


Guitar 2: 
D#||---------------------------------| 
A#||---------------------------------| 
F#||---------------------------------| 
C#||--3--3--3--3--3--3--5--5--5--5\--| 
G#||--3--3--3--3--3--3--5--5--5--5\--| 
C#||--3--3--3--3--3--3--5--5--5--5\--| 



Pre-Verse 
Guitar 1: 
D#||------------------------------------------------------------------------| 
A#||------------------------------------------------------------------------| 
F#||--999999-121212121212-999-121212-161616161616-999-121212-161616-171717--| 
C#||--xxxxxx-x-x-x-x-x-x--xxx-x-x-x--x-x-x-x-x-x--xxx-x-x-x--x-x-x--x-x-x---| 
G#||--777777-101010101010-777-101010-141414141414-777-101010-141414-151515--| 
C#||------------------------------------------------------------------------| 


Guitar 2: 
D#||--------------------------------------------| 
A#||--888888888888888888888888-8888888888-------| 
F#||--xxxxxxxxxxxxxxxxxxxxxxxx-xxxxxxxxxx-------| 
C#||--777777777777777777777777-5555555555-//\\--| 
G#||--777777777777777777777777-5555555555-//\\--| 
C#||--777777777777777777777777-5555555555-//\\--| 


Guitar 1: 
D#||-------------------| 
A#||-------------------| 
F#||--17171717171717\--| 
C#||--x-x-x-x-x--x--\--| 
G#||--15151515151515\--| 
C#||-------------------| 


Guitar 2: 
D#||-----------------| 
A#||-----------------| 
F#||-----------------| 
C#||--3-3---5--5-3\--| 
G#||--3-3--------3\--| 
C#||--3-3--------3\--| 



Verse 
Guitar 1: 
D#||-------------------------------------------------------------------------| 
A#||--13-13-13-12-12-12-8-8-8/10-10-10-13-13-13-12-12-12-/17-17-17-17-17-17--| 
F#||-------------------------------------------------------------------------| 
C#||-------------------------------------------------------------------------| x2 
G#||-------------------------------------------------------------------------| 
C#||-------------------------------------------------------------------------| 
      .  .  .  .  .  .  . . . .  .  .  .  .  .  .  .  .  .  .  .  .  .  . 


Guitar 2: 
D#||---------------------------------------------------------| 
A#||---------------------------------------------------------| 
F#||---------------------------------------------------------| 
C#||---------------------9999-1010---------------------------| 
G#||--777777777777777777-7777-8-8--555555555555-33333333333--| 
C#||--777777777777777777-----------555555555555-33333333333--| 
      .................. .... . .  ............ ........... 



Guitar 1: 
D#||--------------------------------------------------------------------------------| 
A#||------------------------------------------------------------------------888888--| 
F#||--5--5--5-4-5--5--5-7-5--5--5-4-5--5--5-7-5--5--5-4-5--5--5-7-5--5--5-4-999999--| 
C#||--7--7--7-5-7--7--7-7-7--7--7-5-7--7--7-7-7--7--7-5-7--7--7-7-7--7--7-5---------| 
G#||--------------------------------------------------------------------------------| 
C#||--------------------------------------------------------------------------------| 



Guitar 2: 
D#||-----------------------------------------------------------| 
A#||-----------------------------------------------------------| 
F#||-----------------------------------------------------------| 
C#||---------------------9999-1010-----------------------------| 
G#||--777777777777777777-7777-8-8--555555555555-333333-555555--| 
C#||--777777777777777777-----------555555555555-333333-555555--| 
      .................. .... . .  ............ ...... ...... 



Pre-Chorus 
Guitar 1: 
D#||----------------------------------------------------------| 
A#||---------8-8-8--------8-8-8-----8-8-8-8-/-12-12-12-12-12--| 
F#||---------9-9-9--------9-9-9-----9-9-9-9-/-12-12-12-12-12--| 
C#||--3-3----------3-3----------5-5---------------------------| 
G#||--3-3-x--------3-3-x--------5-5---------------------------| 
C#||--3-3-x--------3-3-x--------5-5---------------------------| 


Guitar 2: 
D#||---------------------------------------------------| 
A#||---------------------------------------------------| 
F#||---------------------------------------------------| 
C#||--3-3----5-5-5-3-3----5-5-5-5-5-5-5-5-5/9-9-9-9-9--| 
G#||--3-3-x--------3-3-x--------5-5--------------------| 
C#||--3-3-x--------3-3-x--------5-5--------------------| 



Chorus 
Guitar 1: 
D#||--------------------------------------12----12----12----10----10----10-----| 
A#||--10----10----10----12----12----12-------13----13----13----13----13----13--| 
F#||-----12----12----12----12----12----12--------------------------------------| 
C#||---------------------------------------------------------------------------| 
G#||---------------------------------------------------------------------------| 
C#||---------------------------------------------------------------------------| 


D#||--15----15----------15----15-----------------------------------------------| 
A#||-----13----13----13----13----13----13-12----12----12----15----15----15-----| 
F#||--------------14----------------14-------12----12----12----12----12----12--| 
C#||---------------------------------------------------------------------------| x2 
G#||---------------------------------------------------------------------------| 
C#||---------------------------------------------------------------------------| 


Guitar 2: 
D#||------------------------------------------------------------------| 
A#||------------------------------------------------------------------| 
F#||------------------------------------------------------------------| 
C#||--3--33333--3333-5--5555-5--5555-7--7777-2--2222-3--3333-3--3333--| 
G#||--3--33333--3333-5--5555-5--5555-7--7777-2--2222-3--3333-3--3333--| 
C#||--3--33333--3333-5--5555-5--5555-7--7777-2--2222-3--3333-3--3333--| 


D#||-----------------------------------------------------------------| 
A#||-----------------------------------------------------------------| 
F#||-----------------------------------------------------------------| 
C#||--3--33333--3333-5--5555-5--5555-7--7777-2--2222-3--3333-555555--| 
G#||--3--33333--3333-5--5555-5--5555-7--7777-2--2222-3--3333-555555--| 
C#||--3--33333--3333-5--5555-5--5555-7--7777-2--2222-3--3333-555555--| 


Guitar 1: 
D#||---------------------------------------------------------------------------| 
A#||--------12-13-12----------12-13-12----------12-13-12----------12-13-12-----| 
F#||--12-14----------14-12-14----------14-12-14----------14-12-14----------14--| 
C#||---------------------------------------------------------------------------| 
G#||---------------------------------------------------------------------------| 
C#||---------------------------------------------------------------------------| 


D#||---------------------------------------------------------| 
A#||--------12-13-12----------12-13-12----------12-13-12-----| 
F#||--12-14----------14-12-14----------14-12-14----------14--| 
C#||---------------------------------------------------------| 
G#||---------------------------------------------------------| 
C#||---------------------------------------------------------| 


Guitar 2: 
D#||---------------------------------------------------------------------| 
A#||---------------------------------------------------------------------| 
F#||---------------------------------------------------------------------| 
C#||--3--3--3--3--3--3--5--5--5--5--5--5--3--3--3--3--3--3--5--5--5--5\--| 
G#||--3--3--3--3--3--3--5--5--5--5--5--5--3--3--3--3--3--3--5--5--5--5\--| 
C#||--3--3--3--3--3--3--5--5--5--5--5--5--3--3--3--3--3--3--5--5--5--5\--| 



Bridge 
Guitar 1/2: 
D#||--------------------------------------| 
A#||--------------------------------------| 
F#||--------------------5--5--5-----------| 
C#||--3--3--3--3--3--3--5--5--5--5--5--5--| x2 
G#||--3--3--3--3--3--3--3--3--3--5--5--5--| 
C#||--3--3--3--3--3--3-----------5--5--5--| 


Guitar 1: 
D#||------------------------------------------------------------------------| 
A#||------------------------------------------------------------------------| 
F#||--999999-121212121212-999-121212-161616161616-999-121212-161616-171717--| 
C#||--xxxxxx-x-x-x-x-x-x--xxx-x-x-x--x-x-x-x-x-x--xxx-x-x-x--x-x-x--x-x-x---| 
G#||--777777-101010101010-777-101010-141414141414-777-101010-141414-151515--| 
C#||------------------------------------------------------------------------| 


D#||-----------------------------| 
A#||-----------------------------| 
F#||--171717171717-161616161616--| 
C#||--x-x-x-x-x-x--x-x-x-x-x-x---| 
G#||--151515151515-141414141414--| 
C#||-----------------------------| 


Guitar 2: 
D#||--------------------------------------| 
A#||--------------------------------------| 
F#||--------------------5--5--5-----------| 
C#||--3--3--3--3--3--3--5--5--5--5--5--5--| x2 
G#||--3--3--3--3--3--3--3--3--3--5--5--5--| 
C#||--3--3--3--3--3--3-----------5--5--5--| 



Guitar 1/2: 
D#||-----------------------------------------------| 
A#||-----------------------------------------------| 
F#||-----------------------------------------------| 
C#||--3-3---5--5-3-3---5--5-5-5---5-5-5-5---5/9-9--| 
G#||--3-3--------3-3--------5-5-------5-5----------| 
C#||--3-3--------3-3--------5-5-------5-5----------| 



Chorus 
Guitar 1: 
D#||---------------------------------------------------------------------------| 
A#||--------12-13-12----------12-13-12----------12-13-12----------12-13-12-----| 
F#||--12-14----------14-12-14----------14-12-14----------14-12-14----------14--| 
C#||---------------------------------------------------------------------------| 
G#||---------------------------------------------------------------------------| 
C#||---------------------------------------------------------------------------| 


D#||---------------------------------------|---------------------------------------| 
A#||--------------------12-12-12-12-13-13--|--------------------13-13-13-12-12-12--| 
F#||--12-12-12-12-12-12--------------------|--14-14-14-12-12-12--------------------| 
C#||---------------------------------------|---------------------------------------| x3 
G#||---------------------------------------|---------------------------------------| 
C#||---------------------------------------|---------------------------------------| 


Guitar 2: 
D#||--------------------------------------------------------| 
A#||--------------------------------------------------------| 
F#||--------------------------------------------------------| 
C#||--333333333333-555555555555-777777-222222-333333333333--| 
G#||--333333333333-555555555555-777777-222222-333333333333--| 
C#||--333333333333-555555555555-777777-222222-333333333333--| 


D#||-------------------------------------------------------| 
A#||-------------------------------------------------------| 
F#||-------------------------------------------------------| 
C#||--3-3-3-3-3-3--5-5-5-5-5-5--7-7-7--2-2-2--3-3-3-3-3-3--| 
G#||--3-3-3-3-3-3--5-5-5-5-5-5--7-7-7--2-2-2--3-3-3-3-3-3--| 
C#||--3-3-3-3-3-3--5-5-5-5-5-5--7-7-7--2-2-2--3-3-3-3-3-3--| 


D#||--------------------------------------------------------| 
A#||--------------------------------------------------------| 
F#||--------------------------------------------------------| 
C#||--3-3-3-3-3-3--5-5-5-5-5-5--7-7-7--2-2-2--3-3-3--5-5-5--| 
G#||--3-3-3-3-3-3--5-5-5-5-5-5--7-7-7--2-2-2--3-3-3--5-5-5--| 
C#||--3-3-3-3-3-3--5-5-5-5-5-5--7-7-7--2-2-2--3-3-3--5-5-5--| 



Outro 
Guitar 1: 
D#||---------------------------------------------------------| 
A#||--------12-13-12----------12-13-12----------12-13-12-----| 
F#||--12-14----------14-12-14----------14-12-14----------14--| 
C#||---------------------------------------------------------| 
G#||---------------------------------------------------------| 
C#||---------------------------------------------------------| 


Guitar 2: 
D#||---------------------------------| 
A#||---------------------------------| 
F#||---------------------------------| 
C#||--3~-3~-3~-3~-3~-3~-5~-5~-5~-5\--| 
G#||--3~-3~-3~-3~-3~-3~-5~-5~-5~-5\--| 
C#||--3~-3~-3~-3~-3~-3~-5~-5~-5~-5\--| 




Tablature Legend 
---------------- 
 h   - hammer-on 
 p   - pull-off 
 b   - bend 
 r   - release bend 
 *   - pinch harmonic 
 '   - natural harmonic 
 x   - mute note 
 .   - palm mute 
 /   - slide down 
 \   - slide up 
		  

See also:

tabs Red Hot Chili Peppers - Around The World tabs 311 - The Love Song tabs Red Hot Chili Peppers - Scar Tissue (ver. 4) tabs Audioslave - Cochise tabs Incubus - Wish You Were Here (ver. 1) tabs Red Hot Chili Peppers - Californication
e-chords

Other versions:

tabs There For Tomorrow - Wish You Away
auto scroll beats size up size down change color hide chords drawings
tab show chords e-chords YouTube Clip e-chords hide all tabs e-chords go to top tab

share