The Rival Mob

Mob Justice

The Rival Mob

tabs

by  CARLLUZ

save to print version add songbook text version e-mail correct tuner
chordsukulelecavacokeyboardtabbassdrumsharmonicaflute Guitar Pro
close

there isn't a video lesson for this song

chords

Mob Justice

	  		
Tuning: Standard 

INTRO x2 
e|---------------------------------------------------------------------------| 
B|---------------------------------------------------------------------------| 
G|---------------------------------------------------------------------------| 
D|-3---------9-8-6-8---3---------8-6-4-3-------------------------------------| 
A|-3-xheaps--9-8-6-8---3-xheaps--8-6-4-3-------------------------------------| 
E|-1---------7-6-4-6---1---------6-4-2-1-------------------------------------| 

e|---------------------------------------------------------------------------| 
B|---------------------------------------------------------------------------| 
G|---------------------------------------------------------------------------| 
D|-3----------------3--------------66666-------------------------------------| 
A|-3----------------3--------------66666-------------------------------------| 
E|-1----------------1--------------44444-------------------------------------| 

VERSE x2 
e|---------------------------------------------------------------------------| 
B|---------------------------------------------------------------------------| 
G|---------------------------------------------------------------------------| 
D|-3-3--3--6-4--4--3-3--3--8-6--6--3-3--3--6-4--4--3-3--3--66666-------------| 
A|-3-3--3--6-4--4--3-3--3--8-6--6--3-3--3--6-4--4--3-3--3--66666-------------| 
E|-1-1--1--4-2--2--1-1--1--6-4--4--1-1--1--4-2--2--1-1--1--44444-------------| 

Chorus x2 
e|---------------------------------------------------------------------------| 
B|---------------------------------------------------------------------------| 
G|---------------------------------------------------------------------------| 
D|-3----8-9----6-4-6-----3----8-9----11-9-8----------------------------------| 
A|-3----8-9----6-4-6-----3----8-9----11-9-8----------------------------------| 
E|-1----6-7----4-2-4-----1----6-7----9--7-6----------------------------------| 

e|---------------------------------------------------------------------------| 
B|---------------------------------------------------------------------------| 
G|---------------------------------------------------------------------------| 
D|-3----------------3--------------66666-------------------------------------| 
A|-3----------------3--------------66666-------------------------------------| 
E|-1----------------1--------------44444-------------------------------------| 

VERSE x2 

Chorus x2 

e|---------------------------------------------------------------------------| 
B|---------------------------------------------------------------------------| 
G|---------------------------------------------------------------------------| 
D|----------------------------------10-10-8-9--9-9-9---7-7-4-6--6-6-4--------| 
A|-3-3-3-6-6-2-2-4-3-3-3-3-3-3-3-3--10-10-8-9--9-9-9---7-7-4-6--6-6-4--------| 
E|-1-1-1-4-4-0-0-2-1-1-1-1-1-1-1-1--8--8--6-7--7-7-7---5-5-2-4--4-4-2--------| 
PM|. . . . . . . . . . . . . . . .  

e|---------------------------------------------------------------------------| 
B|---------------------------------------------------------------------------| 
G|---------------------------------------------------------------------------| 
D|-3-------------------------------------------------------------------------| 
A|-3--3-3-3-3-3-3-3-3-3-3-3-3-3-3-3-3----------------------------------------| 
E|-1--1-1-1-1-1-1-1-1-1-1-1-1-1-1-1-1----------------------------------------| 
PM|   . . . . . . . . . . . . . . . . 

e|---------------------------------------------------------------------------| 
B|---------------------------------------------------------------------------| 
G|---------------------------------------------------------------------------| 
D|-3---------9-8-6-8---3-----------------------------------------------------| 
A|-3-xheaps--9-8-6-8---3-----------------------------------------------------| 
E|-1---------7-6-4-6---1-----------------------------------------------------| 
		  

See also:

tabs Deep Purple - Burn tabs Deep Purple - Lazy tabs Deep Purple - Deep Purple - Smoke On The Water tabs Deep Purple - Stormbringer tabs Deep Purple - Demon's Eye tabs Albert Hammond Jr - Holiday
e-chords

Other versions:

tabs The Rival Mob - Mob Justice
auto scroll beats size up size down change color hide chords drawings
tab show chords e-chords YouTube Clip e-chords hide all tabs e-chords go to top tab

share