Ira!

Flerte Fatal (intro e solo)

Ira!

tabs Intermediate intermediate

by  CDF DA GUITARRA

save to print version add songbook text version e-mail correct tuner
chordsukulelecavacokeyboardtabbassdrumsharmonicaflute Guitar Pro
close

there isn't a video lesson for this song

chords

Flerte Fatal (intro e solo)

	  		    
 
Artista: Ira!  
Música : Flerte Fatal    Por: Rafael ([email protected])  
Tom: E 
   
   E                     C#m                  C                       C#m 
e|------------------------------9----9-----------08------8------8---------09----9-9-9--------| 
b|-----x-9----------------------9----9-----------08------8------8---------09-09-9-9-9--------| 
G|-9-9-x-9---------9/11\9---------09---9/11\9----09--09----09-x-----------09-09-------9/11\9-| 
D|-9-9-----------9-9/11\9-x--11---11---9/11\9-x--10--10----10-x-----------11-11-------9/11\9-| 
A|-7-7------9/11-0--------x--11---11----------x--10--10------------10/11--11-----------------| 
E|----------0----------------09--------------------------------------------------------------| 
 
Solo: 
 
  Antes do solo 
        B         E                               C#m         
e|-------------|-----|--------------------------|-------|-9^-9^/7-9/7-----------| 
b|-------------|-9-9-|---------------------10/9-|-09-09-|-------------5-7-5-7-5-| 
G|-8-8-8-8-8-8-|-9-9-|----------------11/9------|-09-09-|-----------------------| 
D|-9-9-9-9-9-9-|-9-9-|------9----11/9-----------|-11-11-|-----------------------| 
A|-9-9-9-9-9-9-|-7-7-|-9/11---11----------------|-11-11-|-----------------------| 
E|-7-7-7-7-7-7-|-----|--------------------------|-------|-----------------------| 
 
    C                                C#m 
e|-08-08-|-10-8----------10-8----------------------------------| 
b|-08-08-|-08-8-08-08-08-08-8-08-08---09-09----12-12-12-12-12--| 
G|-09-09-|-09-9-09-09-09-09-9-09-09---09-09-09-09-19-19-19-19--| 
D|-10-10-|------10-10-10------10-10---11-11-11-11-11-11-11-11--| 
A|-10-10-|----------------------------11----11-11-11-11-11-11--| 
E|-08-08-|-----------------------------------------------------| 
 
Segunda Parte do Solo:(E C#m C C#m) 
   E                                                                       *várias vezes 
e|---|----------------------------------------------10--12-14^-14-12-14-12-|-----12-12-| 
b|---|-10-9-7---7----10-9-10-9-7---7----------10-12------------------------|-15^-------| 
G|---|--------9---9--------------9---9-9-9-9/------------------------------|-----------| 
D|---|---------------------------------9-9-9/------------------------------|-----------| 
A|---|---------------------------------------------------------------------|-----------| 
E|---|---------------------------------------------------------------------|-----------| 
 
e|---------------------------15-10-12---------| 
b|-10^-10-10/8---10-8-10-10-----09-11-9^9-----| 
G|-------------9------09-09---------------9---| 
D|--------------------------------------------| 
A|--------------------------------------------| 
E|--------------------------------------------| 
 
Acordes: 
 
   E   C#m   C   B      
e|-7----9----8---7---|  È + ou - isso a música espero q vcs tenham entendido e gostado vlw 
b|-9----9----8---7---|  Qualquer coisa mande um email para [email protected] para  
G|-9----9----9---8---|  mandar sugestões. 
D|-9----11---10--9---| 
A|-7----11---10--9---| 
E|-7----9----8---7---| 
 

		  

Full key step upFull key step up
Half key step upHalf key step up
Half key step downHalf key step down
Full key step downFull key step down
hide glossary

See also:

tabs Engenheiros do Hawaii - Infinita Highway tabs B5 - Só mais uma vez tabs Rodox - Dia Quente tabs Legião Urbana - Há Tempos tabs Raul Seixas - Tente outra vez tabs Engenheiros do Hawaii - Pra ser sincero ( ver. 2)
e-chords

Other versions:

tabs Ira! - Flerte Fatal (intro e solo) tabs Ira! - Flerte Fatal (Solo - Acustico Mtv)
auto scroll beats size up size down change color hide chords drawings
tab show chords e-chords YouTube Clip e-chords hide all tabs e-chords go to top tab

share