The Rival Mob

Mind Over Matter

The Rival Mob

tabs

by  TERCMORAES

save to print version add songbook text version e-mail correct tuner
chordsukulelecavacokeyboardtabbassdrumsharmonicaflute Guitar Pro
close

there isn't a video lesson for this song

chords

Mind Over Matter

	  		
Riff 1  

e|-----------------------------------------------------------------------------------------------------| 
B|--------------------------------------------------------------------------------7*-------------------| 
G|-----------------------------------------------------------------------------------------------------| 
D|-----------------------------------------------------------------------------------------------------| 
A|---6--4-3---6--4-3---6--4-3--9x9x9x9x9x9x9x--6--4-3---6--4-3---6--4-3--9x-------6-------6---/\-------| 
E|---4--2-1---4--2-1---4--2-1--7x7x7x7x7x7x7x--4--2-1---4--2-1---4--2-1--7x-------4-------4---/\-------| 


Riff 2 

e|----------------------------------------------------------------| 
B|----------------------------------------------------------------| 
G|----------------------------------------------------------------| 
D|---------------------7\6-6-7\6-6-7\6----------------------------| 
A|---6x6x6x-4x4x4x3x3x-5\4-4-5\4-4-5\4----------------------------| 
E|---4x4x4x-2x2x2x1x1x--------------------------------------------| x4 


Riff 3 

e|----------------------------------------------------------------| 
B|----------------------------------------------------------------| 
G|----------------------------------------------------------------| 
D|----------------------------------------------------------------| 
A|---6-6-6--9-9-9--6-6-6--7\6-6--6-6-6--9-9-9--3-3-3-3-3-3-3------| 
E|---4-4-4--7-7-7--4-4-4--5\4-4--4-4-4--7-7-7--1-1-1-1-1-1-1------| x2 

Then Riff 1, Riff 2, Riff 3 


Riff 4 

e|----------------------------------------------------------------| 
B|----------------------------------------------------------------| 
G|----------------------------------------------------------------| 
D|----------------------------------------------------------------| 
A|---6-6-6--9-7-6--2-2--7-6--6-4-6--------------------------------| 
E|---4-4-4--7-5-4--0-0--5-4--4-2-4--------------------------------| x4 

End with 

e|------------| 
B|------------| 
G|------------| 
D|------------| 
A|---6-4-6----| 
E|---4-2-4----| x4 



************************************ 

x - muted note 
\ - slide 
/\ - scratch 
7* - natural harmonic with tremolo bar 

************************************ 
		  

See also:

tabs Deep Purple - Black Night tabs Deep Purple - Soldier Of Fortune tabs Deep Purple - Demon's Eye tabs Ira! - Envelheço na Cidade tabs Deep Purple - Smoke on the Water (correct) tabs Ira! - Tarde Vazia (Acústico)
e-chords

Other versions:

tabs The Rival Mob - Mind Over Matter
auto scroll beats size up size down change color hide chords drawings
tab show chords e-chords YouTube Clip e-chords hide all tabs e-chords go to top tab

share