The Rev. Peyton's Big Damn Band

Long Gone

The Rev. Peyton's Big Damn Band

tabs Advanced advanced

by  WEEZER PILLOWS

save to print version add songbook text version e-mail correct tuner
chordsukulelecavacokeyboardtabbassdrumsharmonicaflute Guitar Pro
close

there isn't a video lesson for this song

chords

Long Gone

	  		main riff 
played through the whole song 
|--3-3-0--5-0-3---------0-----0-----------------0-- 
|------------------3-3h4--3-4------1-3p1-1---1-3--- 
|-------------------------------------------------- 
|-------------------------------------------------- 
|--3-3-3--3-3-3------------------------------------ 
|----------------3-3-3----3-3-3--1-1-1---1-1------- 
 
|----3-3p0-5-0------------0-----0--------0----| 
|--------------------3-3h4--3-4----1-3p1---1--| 
|---------------------------------------------| 
|---------------------------------------------| 
|--3-3-3---3-3--------------------3--3---3-3--| 
|--------------1-2-3-3-3--3-3-3-3-------------| 
pop these 3    ^ ^ ^ 
notes so the   | | | 
string hits      | 
the fretboard----| 
 

		  

See also:

tabs Blind Blake - One Time Blues tabs Robert Johnson - Red Hots tabs Rival Sons - Keep On Swinging tabs John Lee Hooker - whiskey and wimmen tabs Mississipi John Hurt - Stack O' Lee Blues tabs Muddy Waters - I can't be satisfied
e-chords

Other versions:

tabs Syd Barrett - Long Gone tabs The Rev. Peyton's Big Damn Band - Long Gone
auto scroll beats size up size down change color hide chords drawings
tab show chords e-chords YouTube Clip e-chords hide all tabs e-chords go to top tab

share