Wilson Pickett

Land Of 1000 Dances

Wilson Pickett

tabs Expert expert

by  POPPAMIES

save to print version add songbook text version e-mail correct tuner
chordsukulelecavacokeyboardtabbassdrumsharmonicaflute Guitar Pro
close

there isn't a video lesson for this song

chords

Land Of 1000 Dances

	  		Land Of 1000 Dances.btab 
Wilson Pickett 
TablEdited by Poppamies 
Tuning : E A D G 	Time Signature: 4/4 

 tempo 174       |       |        |       |       |       |         
|--------------------------------|--------------------------------| 
|--------------------------------|--------------------------------| 
|--------------------------------|2-------------------------------| 
|--------------------------------|--------------------------------| 

 |       |       |       |        |       |       |       |         
|--------------------------------|--------------------------------| 
|--------------------------------|0-------------------------------| 
|--------------------------------|--------------------------------| 
|--------------------------------|--------------------------------| 

 |       |       |       |        |       |       |       |         
|7---7---7---7---7---7---7---7---|7---7---7---7---5---------------| 
|--------------------------------|--------------------7-----------| 
|--------------------------------|------------------------7-------| 
|--------------------------------|--------------------------------| 

 |       |       |       |        |       |       |       |         
|--------------------------------|--------------------------------| 
|--------------------0-------0---|----------------------------0---| 
|5-------5-------3-------3-------|5-------5-------5---0---3-------| 
|--------------------------------|--------------------------------| 

 |       |       |       |        |       |       |       |         
|--------------------------------|--------------------------------| 
|--------------------0-------0---|----------------------------0---| 
|5-------5-------3-------3-------|5-------5-------0---3---3-------| 
|--------------------------------|--------------------------------| 

 |       |       |       |        |       |       |       |         
|--------------------------------|--------------------------------| 
|----------------------------0---|----------------------------0---| 
|5-------5-------0---3---3-------|5-------5-------0---3---3-------| 
|--------------------------------|--------------------------------| 

 |       |       |       |        |       |       |       |         
|--------------------------------|--------------------------------| 
|----------------------------0---|----------------------------0---| 
|5-------5-------0---3---3-------|5-------5-------0---3---3-------| 
|--------------------------------|--------------------------------| 

 |       |       |       |        |       |       |       |         
|--------------------------------|--------------------------------| 
|--------------------------------|----------------------------0---| 
|5-------5-------0-------3-------|5-------5-------0-------3-------| 
|--------------------------------|--------------------------------| 

 |       |       |       |        |       |       |       |         
|--------------------------------|--------------------------------| 
|--------------------0-------0---|----------------------------0---| 
|5-------5-------3-------3-------|5-------5-------0---3---3-------| 
|--------------------------------|--------------------------------| 

 |       |       |       |        |       |       |       |         
|--------------------------------|--------------------------------| 
|----------------------------0---|----------------------------0---| 
|5-------4h--5---5---0---3-------|5-------4h--5---0---3---3-------| 
|--------------------------------|--------------------------------| 

 |       |       |       |        |       |       |       |         
|--------------------------------|--------------------------------| 
|----------------------------0---|----------------------------0---| 
|5-------5-------0---3---3-------|5-------5-------0---3---3-------| 
|--------------------------------|--------------------------------| 

 |       |       |       |        |       |       |       |         
|--------------------------------|--------------------------------| 
|----------------------------0---|----------------------------0---| 
|5-------5-------0---3---3-------|5-------5-------0---3---3-------| 
|--------------------------------|--------------------------------| 

 |       |       |       |        |       |       |       |         
|--------------------------------|--------------------------------| 
|----------------------------0---|----------------------------0---| 
|5-------5-------0---3---5-------|5-------5-------0-------3-------| 
|--------------------------------|--------------------------------| 

 |       |       |       |        drum break      |       |         
|--------------------------------|--------------------------------| 
|0-------------------------------|--------------------------------| 
|--------------------------------|--------------------------------| 
|--------------------------------|--------------------------------| 

 |       |       |       |        |       |       |       |         
|----7-------5-------------------|--------------------------------| 
|--------------------7-------0---|----------------------------0---| 
|--------------------------------|5-------5-------0---3---5-------| 
|--------------------------------|--------------------------------| 

 |       |       |       |        |       |       |       |         
|--------------------------------|-------- and so on ...----------| 
|----------------------------0---|----------------------------0---| 
|5-------5-------0---3---3-------|5-------5-------0---3---3-------| 
|--------------------------------|--------------------------------| 

Created with TablEdit http://www.tabledit.com/ 


		  

Full key step upFull key step up
Half key step upHalf key step up
Half key step downHalf key step down
Full key step downFull key step down
hide glossary

See also:

tabs Rival Sons - Where I've Been tabs Rival Sons - Memphis Sun tabs Blind Boy Fuller - Careless Love tabs Stevie Ray Vaughn and Double Trouble - Life By The Drop tabs The Rev. Peyton's Big Damn Band - Worryin' Kind tabs Cowboy Bebop - Blue
e-chords

Other versions:

tabs Wilson Pickett - Land Of 1000 Dances
auto scroll beats size up size down change color hide chords drawings
tab show chords e-chords YouTube Clip e-chords hide all tabs e-chords go to top tab

share