The Offspring

home > The Offspring

Original Prankster Tab

The Offspring

Difficulty: BeginnerBeginner

by Guirocknaveia

tuner correct add songbook print version text version save to e-mail
chordsukulelecavacokeyboardtabbassdrummharmonicsflute Guitar Pro
chords

Original Prankster

Year: 2005 - Album: The Offspring - Greatest Hits

(Dexter Holland)

  		
Intro: 

e|-------------|-------------------|---------------| 
B|-------------|-------------------|---------------| 
G|-------------|-------------------|---------------| 
D|-------------|----------7--------|---------------| 
A|--0-0-3-0-0--|--0-0-3-0---0-3-0--|--0-0-3-0-0--5-| 
E|-------------|-------------------|---------------| 

e|-------------------------------| 
B|-------------------------------| 
G|-------------------------------| 
D|---------7---------------------| 
A|-0-0-3-0---0-0-5-0-5-0-3-5--3b-| 
E|-------------------------------| 

Verse:   

Guitar 1: 

e|----------------------------------------------------------------| 
B|----------------------------------------------------------------| 
G|----------------------------------------------------------------| 
D|---------7--------------------------------7---------------------| 
A|-0-0-3-0---0-6-5-0-5-0-3-5--3b----0-0-3-0---0-6-5-0-5-0-3-5--3b-| 
E|----------------------------------------------------------------| 

Guitar 2: 

e|----------------------------------------------------| 
B|----------------------------------------------------| 
G|----------------------------------------------------| 
D|--0--2--0-2--4--4--2-4--2---0--2--0-2--4--4--2-4--2-| 
A|--0--3--0-3--5--5--3-5--3---0--3--0-3--5--5--3-5--3-| 
E|----------------------------------------------------| 

e|-----------------------------------------| 
B|-----------------------------------------| 
G|-----------------------------------------| 
D|--0--2--0-2--4--4--2-4--2---0--2--0-2--4-| 
A|--0--3--0-3--5--5--3-5--3---0--3--0-3--5-| 
E|-----------------------------------------| 

G5 E5 

Pre-chorus: A5 C5 E5 Eb5 D5 C5 D5 C5 (3x) G5 E5 

Chorus: A5 D5  G5 (3x) G5 D5 G5 D G5 Ab5 



	  

Full key step upFull key step up
Half key step upHalf key step up
Half key step downHalf key step down
Full key step downFull key step down
Search Paypal
auto scroll beats size up size down change color hide chords drawings
tab show chords e-chords YouTube Clip e-chords hide all tabs e-chords go to top tab