The Camels

Over When I Met You

The Camels

tabs

save to print version add songbook text version e-mail correct tuner
chordsukulelecavacokeyboardtabbassdrumsharmonicaflute Guitar Pro
close

there isn't a video lesson for this song

chords

Over When I Met You

	  		Transcribed by Paul @ OzTabs ([email protected]) 
www.ozmusic-central.com.au/oztabs 
 
Notes: Below are the chords played throughout the song, 
you'll need to play along to the song to get the strumming 
correct. Comments & corrections welcome.  
 
 
VERSE CHORDS: 
     G5   B5   C5   A5     G5   B5   C5 
E-|--------------------------------------|- 
B-|--------------------------------------|- 
G-|-------4----5----2-----------4----5---|- 
D-|--5----4----5----2------5----4----5---|- 
A-|--5----2----3----0------5----2----3---|- 
E-|--3---------------------3-------------|- 
 
CHORUS CHORDS: 
    B5   A5 
E-|-----------|- 
B-|-----------|- 
G-|-4----2----|- 
D-|-4----2----|- 
A-|-2----0----|- 
E-|-----------|- 
 
BRIDGE CHORDS: 
    G5   A#5  C5                   D5 
E-|---------------|-		-|-----|- 
B-|---------------|-		-|-----|- 
G-|------3----5---|-		-|-7---|- 
D-|-5----3----5---|-(repeat a	-|-7---|- 
A-|-5----1----3---|- few times)	-|-5---|- 
E-|-3-------------|-		-|-----|- 
 
 

		  

Full key step upFull key step up
Half key step upHalf key step up
Half key step downHalf key step down
Full key step downFull key step down
hide glossary

See also:

tabs INXS - Dont change tabs Australian Crawl - Things Don't Seem tabs The Beautiful Girls - Freedom (part 2) tabs Hillsong Music Australia - In the Mystery tabs Gerling - The Deer In You tabs Boom Crash Opera - Onion Skin
e-chords

Other versions:

tabs The Camels - Over When I Met You
auto scroll beats size up size down change color hide chords drawings
tab show chords e-chords YouTube Clip e-chords hide all tabs e-chords go to top tab

share