Boom Crash Opera

Onion Skin

Boom Crash Opera

tabs Easy easy

save to print version add songbook text version e-mail correct tuner
chordsukulelecavacokeyboardtabbassdrumsharmonicaflute Guitar Pro
close

there isn't a video lesson for this song

chords

Onion Skin

	  		[email protected] 
 
 
 
SPOKEN - (Boom, Crash, Opera) 
 
 
Hey! Give it in! Cut it out! Kick it Out! 
Hey! Give it in! Cut it out! Kick it Out! 
 
 
E--X--X--X--X--X--X--X--X--X--X--X--X 
B--X--X--X--X--X--X--X--X--X--X--X--X 
G--X--X--X--X--X--X--X--X--X--X--X--X 
D--X--X--X--X--X--X--X--X--X--X--X--X 
A--X--X--X--X--X--X--X--X--X--X--X--X 
E--X--X--X--X--X--X--X--X--X--X--X--X 
 
 
Whoa-oo onion skin 
Walking around with your heart caved in 
When you strart to roll 
    G                     G      G 
The skin flies off and the teardrops flow 
 
 
E-------3------3-------3--------3- 
B-------3------3-------3--------3- 
G--------------------------------- 
D--------------------------------- 
A-------------------------3--3---- 
E--3--3---0--0----6--6------------ 
 
 
Whoa-oo onion skin 
 
 
Walking around with your heart caved in 
 
 
When you start to roll 
    G                     G     G 
The skin flies off and the teardrops flow 
 
 
 
E------------------------------------- 
B------------------------------------- 
G------------------------------------- 
D--------3--------3-------3-------3--- 
A------------------------------------- 
E--3--3-----3--3-----3--3----3--3----- 
 
 
These here are crazy times 
Try keeping heart and mind 
From rolling off the chopping board 
                     G              G 
Keep your chin up and choke back the tears 
 
 
CHORUS 
 
 
G             Em 
Whoa-oo onion skin 
D#                      C 
Walking around with your heart caved in 
G              Em 
When things start to roll 
D#                             C 
The skin flies off and the teardrops flow 
G         Em 
Whoa-oo onion skin 
D#                              C 
You might see the trap but you still fall in 
G             Em 
When things start to roll 
D#                            C 
The skin flies off and the teardrops flow 
 
 
E------------------------------------- 
B------------------------------------- 
G------------------------------------- 
D--------3--------3-------3-------3--- 
A------------------------------------- 
E--3--3-----3--3-----3--3----3--3----- 
 
 
This here will make you cry 
I'm being skinned alive 
But i've got layers to burn 
You'll never get to my heart of it all 
 
 
CHORUS 
 
 
G             Em 
Whoa-oo onion skin 
D#                      C 
Walking around with your heart caved in 
G              Em 
When things start to roll 
D#                             C 
The skin flies off and the teardrops flow 
G         Em 
Whoa-oo onion skin 
D#                              C 
You might see the trap but you still fall in 
G             Em 
When things start to roll 
D#                            C 
The skin flies off and the teardrops flow 
 
 
E------------------------------------- 
B------------------------------------- 
G------------------------------------- 
D--------3--------3-------3-------3--- 
A------------------------------------- 
E--3--3-----3--3-----3--3----3--3----- 
 
 
....................................Onion Skin 
 
 
Give it in! Cut it out! Kick it Out! 
Give it in! Cut it out! Kick it Out! 
 
 
SOLO - G - Em - D# - C x 2 
 
 
E--X--X--X--X--X--X--X--X--X--X--X--X 
B--X--X--X--X--X--X--X--X--X--X--X--X 
G--X--X--X--X--X--X--X--X--X--X--X--X 
D--X--X--X--X--X--X--X--X--X--X--X--X 
A--X--X--X--X--X--X--X--X--X--X--X--X 
E--X--X--X--X--X--X--X--X--X--X--X--X 
 
 
Whoa-oo onion skin 
Walking around with your heart caved in 
When you strart to roll 
    G                     G      G 
The skin flies off and the teardrops flow 
 
 
G         Em 
Whoa-oo onion skin 
D#                              C 
You might see the trap but you still fall in 
G             Em 
When things start to roll 
D#                            C 
The skin flies off and the teardrops flow 
 
 
 
REPEAT CHORUS TO END 
 
 
CHORDS USED - 
 
 
   G   Em   D#    C 
E---3----3----3----3---- 
B---3----3----3----3---- 
G---0----0----X----0---- 
D---0----2----5----0---- 
A---2----2----6----3---- 
E---3----0----X----X---- 
 
 

		  

Full key step upFull key step up
Half key step upHalf key step up
Half key step downHalf key step down
Full key step downFull key step down
hide glossary

See also:

tabs Hillsong Music Australia - From the Inside Out tabs Beaverloop - Funkywrench tabs Joss Stone - Fell in love with a boy tabs Beaverloop - Alien DNA-Thumb tabs Hillsong Music Australia - Evermore(for all you've done) tabs Gerling - The Deer In You
e-chords

Other versions:

tabs Boom Crash Opera - Onion Skin
auto scroll beats size up size down change color hide chords drawings
tab show chords e-chords YouTube Clip e-chords hide all tabs e-chords go to top tab

share