The Blackout

Hope (scream It Out Loud)

The Blackout

tabs

by  AMAN_CLAUDINO

save to print version add songbook text version e-mail correct tuner
chordsukulelecavacokeyboardtabbassdrumsharmonicaflute Guitar Pro
close

there isn't a video lesson for this song

chords

Hope (scream It Out Loud)

	  		

Intro 

Lead 

e|---------------------------------------------------------------------------| 
B|-------14-------14-------14-------14---------------------------------------| 
G|----11----11-------11-------11-------11------------------------------------|  x4 
D|-13----------13-------13-------13------------------------------------------| 
A|---------------------------------------------------------------------------| 
D|---------------------------------------------------------------------------| 

Rhythm 

e|---------------------------------------------------------------------------| 
B|---------------------------------------------------------------------------| 
G|---------------------------------------------------------------------------| x2 
D|---------------------------------------------------------------------------| 
A|---------------------------------------------------------------------------| 
D|---------------------------------------------------------------------------| 


e|---------------------------------------------------------------------------| 
B|---------------------------------------------------------------------------| 
G|--------------------6-6----------------------------------------------------|  x2 
D|-1-1-x-x--x-4-4-x-x-6-6-x-x--x-6-6-----------------------------------------| 
A|-1-1-x-x--x-4-4-x-x-4-4-x-x--x-6-6-----------------------------------------| 
D|-1-1-x-x--x-4-4-x-x-----x-x--x-6-6-----------------------------------------| 




Pre-Verse 1 


Lead 

e|---------------------------------------------------------------------------| 
B|-------14-------14-------14-------14---------------------------------------| 
G|----11----11-------11-------11-------11------------------------------------| 
D|-13----------13-------13-------13------------------------------------------| 
A|---------------------------------------------------------------------------| 
D|---------------------------------------------------------------------------| 

Rhythm 

e|---------------------------------------------------------------------------| 
B|---------------------------------------------------------------------------| 
G|-4-4-4-4-4-4-4-4-----------------------------------------------------------| 
D|-4-4-4-4-4-4-4-4-----------------------------------------------------------| 
A|-2-2-2-2-2-2-2-2-----------------------------------------------------------| 
D|---------------------------------------------------------------------------| 



Verse 1 

- No rhythm (Bass part can be used - same as intro rhythm) - 

Lead 

e|---------------------------------------------------------------------------| 
B|---------------------------------------------------------------------------| 
G|-----8------8~-------------------------------------------------------------|  (4x) 
D|-6h8----6h8----------------------------------------------------------------|  
A|---------------------------------------------------------------------------| 
D|---------------------------------------------------------------------------| 


Pre Chorus 1 

- No Lead -  

Rhythm 

e|---------------------------------------------------------------------------| 
B|---------------------------------------------------------------------------| 
G|---------------------------------------------------------------------------| (2x) 
D|-4-4-4-4-4-4-4-4-4-4-4-4-4-4-4-4--6-6-6-6-6-6-6-6-6-6-6-6-6-6-6-6----------| 
A|-4-4-4-4-4-4-4-4-4-4-4-4-4-4-4-4--6-6-6-6-6-6-6-6-6-6-6-6-6-6-6-6----------| 
D|-4-4-4-4-4-4-4-4-4-4-4-4-4-4-4-4--6-6-6-6-6-6-6-6-6-6-6-6-6-6-6-6----------| 


Chorus 1 


Lead 

e|---------------------------------------------------------------------------| 
B|-------14-------14-------14-------14---------------------------------------| 
G|----11----11-------11-------11-------11------------------------------------| (4x) 
D|-13----------13-------13-------13------------------------------------------| 
A|---------------------------------------------------------------------------| 
D|---------------------------------------------------------------------------| 

Rhythm 

e|---------------------------------------------------------------------------| 
B|---------------------------------------------------------------------------| 
G|--------------------6-6----------------------------------------------------|  (4x) 
D|-1-1-x-x--x-4-4-x-x-6-6-x-x--x-6-6-----------------------------------------| 
A|-1-1-x-x--x-4-4-x-x-4-4-x-x--x-6-6-----------------------------------------| 
D|-1-1-x-x--x-4-4-x-x-----x-x--x-6-6-----------------------------------------| 

Pre-Verse 2 


Lead 

e|---------------------------------------------------------------------------| 
B|-------14-------14-------14-------14---------------------------------------| 
G|----11----11-------11-------11-------11------------------------------------| 
D|-13----------13-------13-------13------------------------------------------| 
A|---------------------------------------------------------------------------| 
D|---------------------------------------------------------------------------| 

Rhythm 

e|---------------------------------------------------------------------------| 
B|---------------------------------------------------------------------------| 
G|-4-4-4-4-4-4-4-4-----------------------------------------------------------| 
D|-4-4-4-4-4-4-4-4-----------------------------------------------------------| 
A|-2-2-2-2-2-2-2-2-----------------------------------------------------------| 
D|---------------------------------------------------------------------------| 



Verse 2 

- No rhythm (Bass part can be used - same as intro rhythm) - 

Lead 

e|---------------------------------------------------------------------------| 
B|---------------------------------------------------------------------------| 
G|-----8------8~-------------------------------------------------------------|  (4x) 
D|-6h8----6h8----------------------------------------------------------------|  
A|---------------------------------------------------------------------------| 
D|---------------------------------------------------------------------------| 


Pre Chorus 2 

- No Lead -  

Rhythm 

e|---------------------------------------------------------------------------| 
B|---------------------------------------------------------------------------| 
G|---------------------------------------------------------------------------| (2x) 
D|-4-4-4-4-4-4-4-4-4-4-4-4-4-4-4-4--6-6-6-6-6-6-6-6-6-6-6-6-6-6-6-6----------| 
A|-4-4-4-4-4-4-4-4-4-4-4-4-4-4-4-4--6-6-6-6-6-6-6-6-6-6-6-6-6-6-6-6----------| 
D|-4-4-4-4-4-4-4-4-4-4-4-4-4-4-4-4--6-6-6-6-6-6-6-6-6-6-6-6-6-6-6-6----------| 


Chorus 2 


Lead 

e|---------------------------------------------------------------------------| 
B|-------14-------14-------14-------14---------------------------------------| 
G|----11----11-------11-------11-------11------------------------------------| (4x) 
D|-13----------13-------13-------13------------------------------------------| 
A|---------------------------------------------------------------------------| 
D|---------------------------------------------------------------------------| 

Rhythm 

e|---------------------------------------------------------------------------| 
B|---------------------------------------------------------------------------| 
G|--------------------6-6----------------------------------------------------|  (4x) 
D|-1-1-x-x--x-4-4-x-x-6-6-x-x--x-6-6-----------------------------------------| 
A|-1-1-x-x--x-4-4-x-x-4-4-x-x--x-6-6-----------------------------------------| 
D|-1-1-x-x--x-4-4-x-x-----x-x--x-6-6-----------------------------------------| 

Pre Verse 3 (Pre Solo) 

- No Lead - 

Rhythm 


e|---------------------------------------------------------------------------| 
B|---------------------------------------------------------------------------| 
G|-4-4-4-4-4-4-4-4-4-4-4-4-4-4-4-4-------------------------------------------| 
D|-4-4-4-4-4-4-4-4-4-4-4-4-4-4-4-4-------------------------------------------| 
A|-2-2-2-2-2-2-2-2-2-2-2-2-2-2-2-2-------------------------------------------| 
D|---------------------------------------------------------------------------| 


Solo: 

Rhythm does Chorus repeated 

Lead: 

e|---------------------------------------------------------------------------| 
B|---------------------------------------------------------------------------| 
G|--11p10p8-8-8-8-6/8-8-8-8h10/13-13-11-10-8~--------------------------------| 
D|---------------------------------------------------------------------------| 
A|---------------------------------------------------------------------------| 
D|---------------------------------------------------------------------------| 

e|---------------------------------------------------------------------------| 
B|---------------------------------------------------------------------------| 
G|-/13-11-11-11-11\8-8/10-10\8/10h11p10h11p10h11\8-8\6/8~--------------------| 
D|---------------------------------------------------------------------------| 
A|---------------------------------------------------------------------------| 
D|---------------------------------------------------------------------------| 

e|---------------------------------------------------------------------------| 
B|-16-16-16-16-16-16-16-16-16p14-14--14p12-12-12---/16-----------------------| 
G|----------------------------------------------------11-11-11\8-8-8--8/10h11| 
D|---------------------------------------------------------------------------| 
A|---------------------------------------------------------------------------| 
D|---------------------------------------------------------------------------| 

e|---------------------------------------------------------------------------| 
B|------------/16------------------------------------------------------------| 
G|-11-11p10\8-----11-11-11\8-8-8--8/10h11~-----------------------------------| 
D|---------------------------------------------------------------------------| 
A|---------------------------------------------------------------------------| 
D|---------------------------------------------------------------------------| 

Post-solo/pre-chorus 3 

Lead: Dive Bomb (Or bend a note in key/slide a note in key if no floyd rose) 

Rhythm: Pickslide on Low D string to fret 1 (D#) 

Chorus 3 

Lead 

e|---------------------------------------------------------------------------| 
B|-------14-------14-------14-------14---------------------------------------| 
G|----11----11-------11-------11-------11------------------------------------| (8x) 
D|-13----------13-------13-------13------------------------------------------| 
A|---------------------------------------------------------------------------| 
D|---------------------------------------------------------------------------| 

Rhythm 

e|---------------------------------------------------------------------------| 
B|---------------------------------------------------------------------------| 
G|--------------------6-6----------------------------------------------------|  (7x) 
D|-1-1-x-x--x-4-4-x-x-6-6-x-x--x-6-6-----------------------------------------| 
A|-1-1-x-x--x-4-4-x-x-4-4-x-x--x-6-6-----------------------------------------| 
D|-1-1-x-x--x-4-4-x-x-----x-x--x-6-6-----------------------------------------| 

e|---------------------------------------------------------------------------| 
B|---------------------------------------------------------------------------| 
G|-4-4-4-4-4-4-4-4-4-4-4-4-4-4-4-4-------------------------------------------| 
D|-4-4-4-4-4-4-4-4-4-4-4-4-4-4-4-4-------------------------------------------| 
A|-2-2-2-2-2-2-2-2-2-2-2-2-2-2-2-2-------------------------------------------| 
D|---------------------------------------------------------------------------| 



Outro: 

Lead: 

e|---------------------------------------------------------------------------| 
B|---------------------------------------------------------------------------| 
G|---------------------------------------------------------------------------| 
D|-13~-----------------------------------------------------------------------| 
A|---------------------------------------------------------------------------| 
D|---------------------------------------------------------------------------| 

Rhythm: 

e|---------------------------------------------------------------------------| 
B|---------------------------------------------------------------------------| 
G|---------------------------------------------------------------------------| 
D|-1~------------------------------------------------------------------------| 
A|-1~------------------------------------------------------------------------| 
D|-1~------------------------------------------------------------------------|  
		  

Full key step upFull key step up
Half key step upHalf key step up
Half key step downHalf key step down
Full key step downFull key step down
auto scroll beats size up size down change color hide chords drawings
tab show chords e-chords YouTube Clip e-chords hide all tabs e-chords go to top tab

share