Bauhaus

Hope

Bauhaus

tabs

by  SALGOTHZ

save to print version add songbook text version e-mail correct tuner
chordsukulelecavacokeyboardtabbassdrumsharmonicaflute Guitar Pro
close

there isn't a video lesson for this song

chords

Hope

Year: 1989 - Album: Burning from the Inside

	  		Hope  ---Bauhaus 
 
-------------------------                   
-------------------------                   
-2----2--2/7-7--7/9--9-9-      Riff 1     Repeat 7 x.... 
-2----2--2/7-7--7/9--9-9-                   
-0----0--0---0--0----0-0-                  
-------------------------                
 
------------------------------------                   
-8--8-8-8-8--8--8-8---7-7-7-----5-5-        Riff 2     Repita... 
-7--7-7-7-7--7--7-7---6-6-6-----4-4- 
-5--5-5-5-5--5--5-5---4-4-4-----2-2- 
------------------------------------ 
------------------------------------ 
 
------------------------------ 
------------------------------       Riff 3     Repita... 
-7---7-7-7-7---9-9-9-9-9-9-9-- 
-7---7-7-7-7---9-9-9-9-9-9-9-- 
-5---5-5-5-5---7-7-7-7-7-7-7-- 
------------------------------ 
 

		  

auto scroll beats size up size down change color hide chords drawings
tab show chords e-chords YouTube Clip e-chords hide all tabs e-chords go to top tab

share