The 1975

home > The 1975

Surrounded By Heads And Bodies Tab

The 1975

Difficulty: nolevelnolevel

by adalgomes

tuner correct add songbook print version text version save to e-mail
chordsukulelecavacokeyboardtabbassdrumsharmonicsflute Guitar Pro
chords

Surrounded By Heads And Bodies

  		 

Intro 

e|--------------------------------------------------------------------------| 
B|-------0-------0-------0-------0-------0-------2-------0------------------| 
G|-1-------1-------1-------1-------2-------2-------2-------2-----2----------| 
D|---2-------2-------2-------2-------2-------2-------2-------2--------------| 
A|--------------------------------------------------------------------------| 
E|-0---0-------0-------0-------0---2---2-------2-------2-------2------------| 

e|--------------------------------------------------------------------------| 
B|-------0-------0-------0-------0-------0-------0-------0-------0----------| 
G|-1-------1-------1-------1-------2-------2-------2-------2----------------| 
D|---2-------2-------2-------2-------2-------2-------2-------2--------------| 
A|--------------------------------------------------------------------------| 
E|-0---0-------0-------0-------0---2---2-------2-------2-------2------------| 

verse 1 

e|--------------------------------------------------------------------------| 
B|-------0-------0-------0-------0-------0-------0-------0-------0----------| 
G|-1-------1-------1-------1-------2-------2-------2-------2----------------| x2 
D|---2-------2-------2-------2-------2-------2-------2-------2--------------| 
A|--------------------------------------------------------------------------| 
E|-0---0-------0-------0-------0---2---2-------2-------2-------2------------| 

e|--------------------------------------------------------------------------| 
B|-2-----2-2-----2-1-----1-1-----1-2-----2-2-----2-1-----1-1-----1----------| 
G|---2-------2-------2-------2-------2-------2-------2-------2--------------| 
D|--------------------------------------------------------------------------| 
A|-0---0-------0---0---0---0---0---0---0---0---0---0---0---0---0------------| 
E|--------------------------------------------------------------------------| 

e|--------------------------------------------------------------------------| 
B|-------0-------0-------0-------0-------0----------------------------------| 
G|-1-------1-------2-------2-------2-------2--------------------------------| 
D|---2-------2-------2-------2-------2--------------------------------------| 
A|--------------------------------------------------------------------------| 
E|-0---0-------0---2---2-------2-------2------------------------------------| 

verse 2 

e|--------------------------------------------------------------------------| 
B|-------0-------0-------0-------0-------0-------0-------0-------0----------| 
G|-1-------1-------1-------1-------2-------2-------2-------2----------------| 
D|---2-------2-------2-------2-------2-------2-------2-------2--------------| 
A|--------------------------------------------------------------------------| 
E|-0---0-------0-------0-------0---2---2-------2-------2-------2------------| 

e|--------------------------------------------------------------------------| 
B|-------0-------0----------------------------------------------------------| 
G|-1-------1-------1-----1--------------------------------------------------| 
D|---2-------2-------2-----2------------------------------------------------| 
A|---------------------2-----2----------------------------------------------| 
E|-0---0-------0------------------------------------------------------------| 

e|--------------------------------------------------------------------------| 
B|-------0-------0-------0-------0-------0-------0-------0-------0----------| 
G|-2-------2-------2-------2-------2-------2-------2-------2----------------| 
D|---2-------2-------2-------2-------2-------2-------2-------2--------------| 
A|-0---0-------0-------0----------------------------------------------------| 
E|-------------------------4---4---2---2-------2-------2-------2------------| 

e|--------------------------------------------------------------------------| 
B|-------0-------0-------1--------------------------------------------------| 
G|-1-------1-------1-------2------------------------------------------------| 
D|---2-------2-------2------------------------------------------------------| 
A|--------------------------------------------------------------------------| 
E|-0---0-------0-------0----------------------------------------------------| 

verse 3 

e|--------------------------------------------------------------------------| 
B|-------0-------0-------0-------0-------0-------2-------0------------------| 
G|-1-------1-------1-------1-------2-------2-------2-------2-----2----------| 
D|---2-------2-------2-------2-------2-------2-------2-------2--------------| 
A|--------------------------------------------------------------------------| 
E|-0---0-------0-------0-------0---2---2-------2-------2-------2------------| 

e|--------------------------------------------------------------------------| 
B|-------0-------0-------0-------0-------0-------0-------0-------0----------| 
G|-1-------1-------1-------1-------2-------2-------2-------2----------------| 
D|---2-------2-------2-------2-------2-------2-------2-------2--------------| 
A|--------------------------------------------------------------------------| 
E|-0---0-------0-------0-------0---2---2-------2-------2-------2------------| 

e|--------------------------------------------------------------------------| 
B|-------0-------0-------0-------0-------0-------0-------0-------0----------| 
G|-2-------2-------2-------2-------2-------2-------2-------2----------------| 
D|---2-------2-------2-------2-------2-------2-------2-------2--------------| 
A|-0---0-------0-------0----------------------------------------------------| 
E|-------------------------4---4---2---2-------2-------2-------2------------| 

e|--------------------------------------------------------------------------| 
B|-------0-------0-------0-------0-------0-------0-------0-------0----------| 
G|-1-------1-------1-------1-------2-------2-------2-------2----------------| 
D|---2-------2-------2-------2-------2-------2-------2-------2--------------| 
A|--------------------------------------------------------------------------| 
E|-0---0-------0-------0-------0---2---2-------2-------2-------2------------| 

Outro 

e|--------------------------------------------------------------------------| 
B|-2-----2-2-----2-1-----1-1-----1-2-----2-2-----2-1-----1-1-----1----------| 
G|---2-------2-------2-------2-------2-------2-------2-------2--------------| 
D|--------------------------------------------------------------------------| 
A|-0---0---0---0---0---0---0---0---0---0---0---0---0---0---0---0------------| 
E|--------------------------------------------------------------------------| 

e|--------------------------------------------------------------------------| 
B|-------0-------0-------0-------0-------0----------------------------------| 
G|-1-------1-------2-------2-------2-------2--------------------------------| 
D|---2-------2-------2-------2-------2-------2------------------------------| 
A|--------------------------------------------------------------------------| 
E|-0---0-------0---2---2-------2-------2------------------------------------| 
	  

Search Paypal
auto scroll beats size up size down change color hide chords drawings
tab show chords e-chords YouTube Clip e-chords hide all tabs e-chords go to top tab