Ben Howard

Oats In The Water

Ben Howard

tabs Easy easy

by  JOAOEWERTON

save to print version add songbook text version e-mail correct tuner
chordsukulelecavacokeyboardtabbassdrumsharmonicaflute Guitar Pro
close

there isn't a video lesson for this song

chords

Oats In The Water

	  		

Tuning: D A D D A C# 

Verse: 

   Go your way... 
C#|----------------------|----------------------|----------------------|  
 A|----------------------|----------------------|----------------------|  
 D|----------------------|----------------------|----------------------|  
 D|------0-------0-------|------0-------0-------|------0-------0-------|  
 A|---5---5---5---5---5--|---7---7---7---7---7--|---8---8---8---8---8--|  
 D|--0-------0-------0---|--0-------0-------0---|--0-------0-------0---|  
                                                                          
C#|-----------------------------------|---------------------|             
 A|-----------------------------------|---------------------|             
 D|-----------------------10--10--10--|------------8--8--8--|             
 D|------0----------10----10--10--10--|------10----8--8--8--|             
 A|---8---8---8---12--12--10--10--10--|----12--12--8--8--8--|             
 D|--0-------0-------------0---0---0--|------------0--0--0--|             
                                                                          
C#|----------------------|----------------------|                         
 A|----------------------|----------------------|                         
 D|----------------------|----------------------|                        
 D|------0-------0-------|------0-------0-------|                         
 A|---5---5---5---5---5--|---5---5---5---5---5--|                         
 D|--0-------0-------0---|--0-------0-------0---|                         


Pre-chorus: 

   And you'll find loss... 
C#|------------|------------|--6-----6------|--6-----6------| 
 A|------------|------------|----8-----8----|----8-----8----| 
 D|--3---3--3--|--2---2--2--|------0-----0--|------0-----0--| 
 D|--3---3--3--|--2---2--2--|---------------|---------------|   x2 
 A|--3---3--3--|--2---2--2--|---------------|---------------| 
 D|--3---3--3--|--2---2--2--|---------------|---------------| 


Chorus: 

   There'll be oats in the water... 
C#|------------|------------|------------|---------------| 
 A|------------|------------|------------|---------------| 
 D|--5---5--5--|--3---3--3--|--0---0--0--|--10---10--10--| 
 D|--5---5--5--|--3---3--3--|--0---0--0--|--10---10--10--|   x2 
 A|--5---5--5--|--3---3--3--|--0---0--0--|--10---10--10--| 
 D|--5---5--5--|--3---3--3--|--0---0--0--|--10---10--10--| 

C#|--------------|--------------|--------------------| 
 A|--------------|--------------|--------------------| 
 D|--8--8--8--8--|--7--7--7--7--|--------------------| 
 D|--8--8--8--8--|--7--7--7--7--|-----0-------0------| 
 A|--8--8--8--8--|--7--7--7--7--|---5--5---5---5--5--| 
 D|--8--8--8--8--|--7--7--7--7--|--0------0------0---| 

C#|----------------------|----------------------| 
 A|----------------------|----------------------| 
 D|----------------------|----------------------| 
 D|------0-------0-------|------0-------0-------| 
 A|---5---5---5---5---5--|---5---5---5---5---5--| 
 D|--0-------0-------0---|--0-------0-------0---| 

Repeat verse, pre-chorus and chorus, before solo part. 
		  

See also:

tabs Blur - Coffee And TV tabs Ben Howard - Oats In The Water tabs Oasis - Stop crying your heart out tabs Jethro Tull - Mother Goose tabs Stone Temple Pilots - Interstate love song tabs Jethro Tull - Locomotive Breath Beginning
e-chords

Other versions:

tabs Ben Howard - Oats In The Water
auto scroll beats size up size down change color hide chords drawings
tab show chords e-chords YouTube Clip e-chords hide all tabs e-chords go to top tab

share