Testemunhas de Jeová

Ele O Fará Forte

Testemunhas de Jeová

tabs

by  ALYSLIMA

save to print version add songbook text version e-mail correct tuner
chordsukulelecavacokeyboardtabbassdrumsharmonicaflute Guitar Pro
close

there isn't a video lesson for this song

chords

Ele O Fará Forte

Written by Testemunhas de Jeová

	  		Intro: 
 
E|--------------------------------| 
B|--------------------------------| 
G|---7-6-7---9-11----12-11-11-9-11| 
D|-7---------------12-------------| 
A|--------------------------------| 
E|--------------------------------| 
 

 
E|--------------------------------| 
B|--------------------------------| 
G|---12-14-14-9-11-12-12-7-9------| 
D|-12-----------------------------| 
A|--------------------------------| 
E|--------------------------------| 
 

 
E|--------------------------------| 
B|--------------------------------| 
G|---7-6-7---9-11----12-11-11-9-11| 
D|-7---------------12-------------| 
A|--------------------------------| 
E|--------------------------------| 
 

 
E|--------------------------------| 
B|--------------------------------| 
G|-11-9-7-7-11-9-7-7-11-16--------| 
D|--------------------------------| 
A|--------------------------------| 
E|--------------------------------| 
 

Ponte: 
 
E|------------------------------------------------| 
B|---12-10-10-8-10--3-5-7-8--8-8-7-7-5-7--3-5-7-10| 
G|-7------------7--------------------7------------| 
D|------------------------------------------------| 
A|------------------------------------------------| 
E|------------------------------------------------| 
 

Refrăo: 
 
E|-------------------------------| 
B|-10-10-----10-10--------8-12-10| 
G|------11-12-----7-6-4-7--------| 
D|-------------------------------| 
A|-------------------------------| 
E|-------------------------------| 
 

 
E|----------------------------------------------| 
B|---8-7-7---5-7----7-5-5-3-5--10-10---8-10-10--| 
G|-7--------------7-----------------11--------7-| 
D|----------------------------------------------| 
A|----------------------------------------------| 
E|----------------------------------------------| 
 

 
E|------------------------9-10-7-5---| 
B|--10-10-7-8-10-10------------------| 
G|------------------7-6-7------------| 
D|-----------------------------------| 
A|-----------------------------------| 
E|-----------------------------------| 
 

 
E|-----------------------------| 
B|----10-8-8-7-7----9-7-7-5-5--| 
G|--7--------------------------| 
D|----------------7------------| 
A|-----------------------------| 
E|-----------------------------| 
		  

auto scroll beats size up size down change color hide chords drawings
tab show chords e-chords YouTube Clip e-chords hide all tabs e-chords go to top tab