Fernandinho

home > Fernandinho

Seu Sangue Tab

Fernandinho

Difficulty: AdvancedAdvanced

by tiagoomaismaior

tuner correct add songbook print version text version save to e-mail
chordsukulelecavacokeyboardtabbassdrumsharmonicsflute Guitar Pro
chords

Seu Sangue

Year: 2009 - Album: Uma Nova História: ao Vivo

(Fernandinho)

  		
Intro: F#m(no5) 

e|-12------------------12-----------------12----------------| 
B|----10-12---------------10-12--------------10-12----------| 
G|----------/9-11-14------------/9-11-14-----------/9-11-14-| 
D|----------------------------------------------------------| 
A|----------------------------------------------------------| 
E|----------------------------------------------------------| 

Verso: A9 E F#m7 D9 

e|---------------------------------10-10-9-9-| 
B|-10-10-10--9-9-9--10-10-10-9-9-9-----------| 
G|-------------------------------------------| 
D|-------------------------------------------| 
A|-------------------------------------------| 
E|-------------------------------------------| (2x) 

Verso 2: E5 D5 

e|--------------------------------------------------------------------| 
B|-----------------------------------3-3-3-3-3-3-3-3--3-3-3-3-3-3-3-3-| 
G|-----------------------------------2-2-2-2-2-2-2-2--2-2-2-2-2-2-2-2-| 
D|-----------------------------------0-0-0-0-0-0-0-0--0-0-0-0-0-0-0-0-| 
A|-2-2-2-2-2-2-2-2--2-2-2-2-2-2-2-2-----------------------------------| 
E|-0-0-0-0-0-0-0-0--0-0-0-0-0-0-0-0-----------------------------------| 

Ponte: G D/F# F#5 

e|--------3-3---7(Ha)7(Ha)7(Ha)7(ha)---------| 
B|--------3-3------------------------7(Ha)---| 
G|--------0-0--------------------------7(ha)-| 
D|--------0-0--------------------------------| 
A|-------------------------------------------| 
E|-3-3-3--3----------------------------------| 


e|--------------7(Ha)7(Ha)7(Ha)7(ha)---------| 
B|--------3-3------------------------7(Ha)---| 
G|--------2-2--------------------------7(ha)-| 
D|-------------------------------------------| 
A|-x-x-x--x----------------------------------| 
E|-2-2-2--2----------------------------------| 

e|-------------7(Ha)7(Ha)7(Ha)7(Ha)------------------------------| 
B|----------------------------------7(Ha)------------------------| 
G|------------------------------------7(Ha)----------------------| 
D|-4-4-4--4-4---------------------------------2-2-2--2-2--2-2--2-| 
A|-4-4-4--4-4---------------------------------2-2-2--2-2--2-2--2-| 
E|-2-2-2--2-2---------------------------------0-0-0--0-0--0-0--0-| 

e|----------------| 
B|----------------| 
G|-4-------4---1--| 
D|-4---2---4---2--| 
A|-2---2---2---2--| 
E|-----0-------0--| 



Refrão:  

Guitarra 1: A9 E F#m7(no5) D9 

Guitarra 2: A5 E/B A5 D9 


Intro: F#m(no5) 

e|-12------------------12-----------------12----------------| 
B|----10-12---------------10-12--------------10-12----------| 
G|----------/9-11-14------------/9-11-14-----------/9-11-14-| 
D|----------------------------------------------------------| 
A|----------------------------------------------------------| 
E|----------------------------------------------------------| 

Verso: A9 E F#m7 D9 

e|---------------------------------10-10-9-9-| 
B|-10-10-10--9-9-9--10-10-10-9-9-9-----------| 
G|-------------------------------------------| 
D|-------------------------------------------| 
A|-------------------------------------------| 
E|-------------------------------------------| (2x) 

Verso 2: E5 D5 

e|--------------------------------------------------------------------| 
B|-----------------------------------3-3-3-3-3-3-3-3--3-3-3-3-3-3-3-3-| 
G|-----------------------------------2-2-2-2-2-2-2-2--2-2-2-2-2-2-2-2-| 
D|-----------------------------------0-0-0-0-0-0-0-0--0-0-0-0-0-0-0-0-| 
A|-2-2-2-2-2-2-2-2--2-2-2-2-2-2-2-2-----------------------------------| 
E|-0-0-0-0-0-0-0-0--0-0-0-0-0-0-0-0-----------------------------------| 

Ponte: G D/F# F#5 

e|--------3-3---7(Ha)7(Ha)7(Ha)7(ha)---------| 
B|--------3-3------------------------7(Ha)---| 
G|--------0-0--------------------------7(ha)-| 
D|--------0-0--------------------------------| 
A|-------------------------------------------| 
E|-3-3-3--3----------------------------------| 


e|--------------7(Ha)7(Ha)7(Ha)7(ha)---------| 
B|--------3-3------------------------7(Ha)---| 
G|--------2-2--------------------------7(ha)-| 
D|-------------------------------------------| 
A|-x-x-x--x----------------------------------| 
E|-2-2-2--2----------------------------------| 

e|-------------7(Ha)7(Ha)7(Ha)7(Ha)------------------------------| 
B|----------------------------------7(Ha)------------------------| 
G|------------------------------------7(Ha)----------------------| 
D|-4-4-4--4-4---------------------------------2-2-2--2-2--2-2--2-| 
A|-4-4-4--4-4---------------------------------2-2-2--2-2--2-2--2-| 
E|-2-2-2--2-2---------------------------------0-0-0--0-0--0-0--0-| 

e|----------------| 
B|----------------| 
G|-4-------4---1--| 
D|-4---2---4---2--| 
A|-2---2---2---2--| 
E|-----0-------0--| 



Refrão:  

Guitarra 1: A9 E F#m7(no5) D9 

Guitarra 2: A5 E/B A5 D9 

Part Especial: 

e|-12p9---------------------------------| 
B|------10----12p9--10------------10-9--| 
G|---------11----------11p9----11-------| 
D|--------------------------12----------| 
A|--------------------------------------| 
E|--------------------------------------| 

	  

Full key step upFull key step up
Half key step upHalf key step up
Half key step downHalf key step down
Full key step downFull key step down
Search Paypal
auto scroll beats size up size down change color hide chords drawings
tab show chords e-chords YouTube Clip e-chords hide all tabs e-chords go to top tab