Testemunhas de Jeová

Cântico 151

Testemunhas de Jeová

tabs

by  CAIOO222

save to print version add songbook text version e-mail correct tuner
chordsukulelecavacokeyboardtabbassdrumsharmonicaflute Guitar Pro
close

there isn't a video lesson for this song

chords

Cântico 151

Written by Testemunhas de Jeová

	  		1ª Frase  
A vida é neblina da manhã, Não dura muito tempo  

E|-------5--------------------------------------|  
B|-7-5-7---------5-5-7-7--0-7-5-5-7---0---------|  
G|-----------7-7--------------------7-----------|  
D|----------------------------------------------|  
A|----------------------------------------------|  
E|----------------------------------------------|  

2ª Frase  
Tudo que somos pode acabar, Deixando sofrimento  

E|--------7---------------5-----------7---------------------|  
B|--8-7-8---7-7-5-5-7-8-----7-5-5-7-------------------------|  
G|----------------------------------7-----------------------|  
D|----------------------------------------------------------|  
A|----------------------------------------------------------|  
E|----------------------------------------------------------|  

3ª Frase  
Se alguém morrer, pode reviver? Ouçaâ?o que Jeová fará  

E|-7-------7----5---------5---5-----------0----------|  
B|------------------------------7-7-5-7-8------------|  
G|---7-6-7---------7-6-7-----------------------------|  
D|---------------------------------------------------|  
A|---------------------------------------------------|  
E|---------------------------------------------------|  

Refrão  
Chamará os queâ?estão mortos  

E|---------------5--------------|  
B|----5-7--7-8-5----------------|  
G|--7--------------7------------|  
D|------------------------------|  
A|------------------------------|  
E|------------------------------|  

À Sua voz, responderão. Jeová terá saudades  

E|-7-9-10--10-9----7---9-5---5-5-7-5-----------------|  
B|--------------10-------------------8----------------|  
G|----------------------------------------------------|  
D|----------------------------------------------------|  
A|----------------------------------------------------|  
E|----------------------------------------------------|  

Do trabalho das Suas mãos  

E|--------5------------------------|  
B|---5-7----8-5--------------------|  
G|-7------------7------------------|  
D|---------------------------------|  
A|---------------------------------|  
E|---------------------------------|  

Tenha fé, jamais duvide  

E|--------------5------------------|  
B|---5-7--7-8-5--------------------|  
G|-7--------------7----------------|  
D|---------------------------------|  
A|---------------------------------|  
E|---------------------------------|  

Quem amamos voltará! Pra sempre viveremos  

E|-7-9-10--10-9-5-7--9-5--5-5-7-5----------------------|  
B|--------------------------------8-------------------|  
G|----------------------------------------------------|  
D|----------------------------------------------------|  
A|----------------------------------------------------|  
E|----------------------------------------------------|  

Com as bênçãos de Jeová  

E|---------------------------------|  
B|------7--10-8-5------------------|  
G|--7-9------------7---------------|  
D|---------------------------------|  
A|---------------------------------|  
E|---------------------------------|  

1ª frase  
Quandoâ?adormeceâ?alguém especial, Jeová jamais esquece  

E|-------5--------------------------------------|  
B|-7-5-7---------5-5-7-7--0-7-5-5-7---0---------|  
G|-----------7-7--------------------7-----------|  
D|----------------------------------------------|  
A|----------------------------------------------|  
E|----------------------------------------------|  

2ª frase  
Quem na memória de Jeová está, Despertará em breve  

E|--------7---------------5-----------7---------------------|  
B|--8-7-8---7-7-5-5-7-8-----7-5-5-7-------------------------|  
G|----------------------------------7-----------------------|  
D|----------------------------------------------------------|  
A|----------------------------------------------------------|  
E|----------------------------------------------------------|  

3ª frase  
Juntos, vamos ver comoâ?é bom viver: Verdadeira vida ter!  

E|-7-------7----5---------5---5-----------0----------|  
B|------------------------------7-7-5-7-8------------|  
G|---7-6-7---------7-6-7-----------------------------|  
D|---------------------------------------------------|  
A|---------------------------------------------------|  
E|---------------------------------------------------|  

Refrão  
Chamará os queâ?estão mortos  

E|---------------5--------------|  
B|----5-7--7-8-5----------------|  
G|--7--------------7------------|  
D|------------------------------|  
A|------------------------------|  
E|------------------------------|  

À Sua voz, responderão. Jeová terá saudades  

E|-7-9-10--10-9----7---9-5---5-5-7-5-----------------|  
B|--------------10-------------------8----------------|  
G|----------------------------------------------------|  
D|----------------------------------------------------|  
A|----------------------------------------------------|  
E|----------------------------------------------------|  

Do trabalho das Suas mãos  

E|--------5------------------------|  
B|---5-7----8-5--------------------|  
G|-7------------7------------------|  
D|---------------------------------|  
A|---------------------------------|  
E|---------------------------------|  

Tenha fé, jamais duvide  

E|--------------5------------------|  
B|---5-7--7-8-5--------------------|  
G|-7--------------7----------------|  
D|---------------------------------|  
A|---------------------------------|  
E|---------------------------------|  

Quem amamos voltará! Pra sempre viveremos  

E|-7-9-10--10-9-5-7--9-5--5-5-7-5----------------------|  
B|--------------------------------8-------------------|  
G|----------------------------------------------------|  
D|----------------------------------------------------|  
A|----------------------------------------------------|  
E|----------------------------------------------------|  

Com as bênçãos de Jeová  

E|---------------------------------|  
B|------7--10-8-5------------------|  
G|--7-9------------7---------------|  
D|---------------------------------|  
A|---------------------------------|  
E|---------------------------------| 
		  

auto scroll beats size up size down change color hide chords drawings
tab show chords e-chords YouTube Clip e-chords hide all tabs e-chords go to top tab