save to print version add songbook text version e-mail correct tuner
chordsukulelecavacokeyboardtabbassdrumsharmonicaflute Guitar Pro
close

there isn't a video lesson for this song

chords

Song 9

Key:  B More
Song 9 Key F#F#
Song 9 Key GG
Song 9 Key G#G#
Song 9 Key AA(one step down)
Song 9 Key A#A#(half step down)
Song 9 Key BB(original key)
Song 9 Key CC(half step up)
Song 9 Key C#C#(one step up)
Song 9 Key DD
Song 9 Key D#D#
Song 9 Key EE
Song 9 Key FF
	  		

Tuning: DGCFAD (Whole Step Down) 


Intro - Feedback (mostly B) and some other picking or hammer-on 
noises (I think it's the 14th and 12th frets on the G string) 

Part 1 

Guitar 1 

d|------------------------------------------------------------------| 
A|------------------------------------------------------------------| 
F|-4-4-4---------------------4-4-4---------------------4-4-4--------| 
C|-X-X-X---------------------X-X-X---------------------X-X-X--------| 
G|-2-2-2---------------------2-2-2---------------------2-2-2...-----| 
D|------------------------------------------------------------------| 

Guitar 2 

d|--------------------------------------------------------------------| 
A|--------------------------------------------------------------------| 
F|--------------------------------------------------------------------| 
C|---------------9--------------------------9-----------------------9-| 
G|---------------X--------------------------X-----------------------X-| 
D|---------------7--------------------------7-----------------------7-|.. 


Part 2 

Guitar 1 (Layered) (note: sounds closer to the recording if you mute the 
strings closer to the nut and palm mute as usual) 


d|------------------------------------------------------------------| 
A|------------------------------------------------------------------| 
F|------------------------------------------------------------------| 
C|-X-X-X-X-X-X-X-X-X-X--X-X-X-X-X-X-X-X--X-X-X-X-X-X-X-X-X-X--X-X-X-| 
G|-X-X-X-X-X-X-X-X-X-X--X-X-X-X-X-X-X-X--X-X-X-X-X-X-X-X-X-X--X-X-X-| 
D|-X-X-X-X-X-X-X-X-X-X--X-X-X-X-X-X-X-X--X-X-X-X-X-X-X-X-X-X--X-X-X-| 
   pm---------------------------------------------------------------| 

Guitar 2 

d|--------------------------------------------------------------------| 
A|--------------------------------------------------------------------| 
F|--------------------------------------------------------------------| 
C|---------------9--------------------------9-----------------------9-| 
G|---------------X--------------------------X-----------------------X-| 
D|---------------7--------------------------7-----------------------7-|.. 

Guitar 3 

d|----------------------------------------------------------0---0---| 
A|--------------------------------------------------------0-0-0-0---| 
F|--------------------------------------------------------0-0-0---0-| 
C|------------------------------------------------------------------| 
G|------------------------------------------------------------------| 
D|------------------------------------------------------------------| 


Part 3 

Guitar 1 

d|------------------|--------------------------------------------------------| 
A|------------------|--------------------------------------------------------| 
F|-12--12-11--11--9-|-4--4--4-X-X-X-X-X-X-4--4--4-X-X-X-X-X-X-7--7--7-X-X-X--| 
C|--X---X--X---X--X-|-X--X--X-X-X-X-X-X-X-X--X--X-X-X-X-X-X-X-X--X--X-X-X-X--| 
G|-10--10--9---9--7-|-2--2--2-X-X-X-X-X-X-2--2--2-X-X-X-X-X-X-5--5--5-X-X-X--| 
D|------------------|---------X-X-X-X-X-X---------X-X-X-X-X-X----------------|X-X-X... 

G2 

d|------------------|--------------------------------------------------------| 
A|------------------|--------------------------------------------------------| 
F|------------------|-11-11-11-11-11-11-11-11-11-11-11-11-11--7-7-7-7-7-7-7--| 
C|------------------|--X--X--X--X--X--X--X--X--X--X--X--X--X--X-X-X-X-X-X-X--| 
G|----------------0-|--9--9--9--9--9--9--9--9--9--9--9--9--9--5-5-5-5-5-5-5--|.. 
D|--2------3--------|--------------------------------------------------------| 


Part 4 

Guitar 1 

d|------------------------------------------------------------------| 
A|------------------------------------------------------------------| 
F|------------------------------------------------------------------| 
C|-14-14-14----14-14----14-14----14-14-14-12h14-14-14--12h14-14-14--| 
G|-14-14-14----14-14----14-14----14-14-14---------------------------| 
D|--0--0--0-0---0--0-0---0--0-0---0--0--0---------------------------| 

--------------------------------------------------------------------| 
--------------------------------------------------------------------| 
---12h14-14-14----------------------------12h14-14-14---------------| 
----------------12h14-14-14--12h14-14-14----------------------------| 
--------------------------------------------------------------------| 
--------------------------------------------------------------------| 
^repeat 

Guitar 2 

d|------------------------------------------------------------------| 
A|--------------------7-----7-----7-----7---------------------------| 
F|--9--9----9--9---9-----------------------7------------7-----------| 
C|--9--9----9--9---9-----9-----9-----9-----X------------X-----------| 
G|--7--7----7--7---7-----------------------5------------5-----------| 
D|--0--0-0-------0--------------------------------------------------| 

d|------------------------------------------------------------------| 
A|------------------------------------------------------------------| 
F|--7------------7------------7------------7------------------------| 
C|--X------------X------------X------------X------------------------| 
G|--5------------5------------5------------5------------------------| 
D|------------------------------------------------------------------| 
^repeat 


Part 4.5 (end Part 4 with this) 

Guitar 1 (palm muting throughout) 

d|------------------------------------------------------------------| 
A|------------------------------------------------------------------| 
F|-7-7-7-7-7-7-7-7-7-7-7-7-7-7-7-711111111111111111111111111111111--| 
C|-7-7-7-7-7-7-7-7-7-7-7-7-7-7-7-711111111111111111111111111111111--| 
G|-5-5-5-5-5-5-5-5-5-5-5-5-5-5-5-5-9-9-9-9-9-9-9-9-9-9-9-9-9-9-9-9--| 
D|------------------------------------------------------------------| 

Guitar 2 (palm muting throughout) 

d|------------------------------------------------------------------| 
A|------------------------------------------------------------------| 
F|-7-7-7-7-7-7-7-7-7-7-7-7-7-7-7-7----------------------------------| 
C|-7-7-7-7-7-7-7-7-7-7-7-7-7-7-7-7-4-4-4-4-4-4-4-4-4-4-4-4-4-4-4-4--| 
G|-5-5-5-5-5-5-5-5-5-5-5-5-5-5-5-5-4-4-4-4-4-4-4-4-4-4-4-4-4-4-4-4--| 
D|---------------------------------2-2-2-2-2-2-2-2-2-2-2-2-2-2-2-2--| 


Part 5 

Guitar 1 

d|------------------------------------------------------------------| 
A|------------------------------------------------------------------| 
F|-12--------14-----------------------------------------------------| 
C|-12--------14--------14-------------------------------------------| 
G|-10--------12--------14-------------------------------------------| 
D|---------------------12-------------------------------------------| 

Guitar 2 

d|-3-------------------0--------------------------------------------| 
A|-3---------2---------0--------------------------------------------| 
F|-0---------2---------1--------------------------------------------| 
C|-0---------2---------2--------------------------------------------| 
G|-X---------0---------2--------------------------------------------| 
D|-3-------------------0--------------------------------------------| 


Part 6 

Guitar 1 

d|------------------------------------------------------------------| 
A|----10----10----10----10----10----10------------------------------| 
F|-------------------------------------9--9--9--9--9----------------| 
C|-11----11----11----11----11----11----9--9--9--9--9----------------| 
G|-------------------------------------7--7--7--7--7...-------------| 
D|------------------------------------------------------------------| 

Guitar 2 

d|------------------------------------------------------------------| 
A|------------------------------------------------------------------| 
F|-11--11--11--11-11-11-11--11--11--11-11-11-4----------------------| 
C|-11--11--11--11-11-11-11--11--11--11-11-11-X----------------------| 
G|--9---9---9---9--9--9--9---9---9---9--9--9-2----------------------| 
D|------------------------------------------------------------------| 


************************************ 

| /   slide up 
| \   slide down 
| h   hammer-on 
| p   pull-off 
| ~   vibrato 
| +   harmonic 
| x   Mute note 
| b   Bend 
| pb  Pre-bend 
| br  Bend release 
| pbr Pre-bend release 
| brb Bend release bend 

************************************ 
		  

Full key step upFull key step up
Half key step upHalf key step up
Half key step downHalf key step down
Full key step downFull key step down
hide glossary

See also:

tabs Simon & Garfunkel - Sounds of silence tabs The Strokes - Juicebox tabs John Mayer - Belief tabs Guns N' Roses - Sweet Child o' mine tabs Guns N' Roses - November Rain tabs Foo Fighters - Everlong (acústico)
e-chords

Other versions:

tabs Sunny Day Real Estate - Song 9
auto scroll beats size up size down change color hide chords drawings
tab show chords e-chords YouTube Clip e-chords hide all tabs e-chords go to top tab

share