Steely Dan

Ida Lee

Steely Dan

tabs

by  TAMAMOREIRA

save to print version add songbook text version e-mail correct tuner
chordsukulelecavacokeyboardtabbassdrumsharmonicaflute Guitar Pro
close

there isn't a video lesson for this song

chords

Ida Lee

Key:  G More
Ida Lee Key DD
Ida Lee Key D#D#
Ida Lee Key EE
Ida Lee Key FF(one step down)
Ida Lee Key F#F#(half step down)
Ida Lee Key GG(original key)
Ida Lee Key G#G#(half step up)
Ida Lee Key AA(one step up)
Ida Lee Key A#A#
Ida Lee Key BB
Ida Lee Key CC
Ida Lee Key C#C#
	  		
Main 

e|------------------------|---------|----------------------------| 
B|------5----------7------|---------|--8-----8-7-----7-----------| 
G|------------------------|---------|----7-------7---------------| 
D|----5----------7---7----|---------|------5-------7-------------| 
A|--3-----3--3/5----------|---------|----------------------------| 
E|------------------------|---------|----------------------------| 

Every once in a while, they throw this in instead: 

e|------------------------|---------|----------------------------| 
B|------5----------7------|---------|--8-----8-5-----5-----------| 
G|------------------------|---------|----7-------4---------------| 
D|----5----------7---7----|---------|------5-------6-------------| 
A|--3-----3--3/5----------|---------|----------------------------| 
E|------------------------|---------|----------------------------| 


Chorus 

    G6       D      C#7    F#     Bm 
e|---3---------------4-------------------------------------------------------| 
B|---5-------7-------5--------------3----------------------------------------| 
G|---4-------7-------4-------3------4----------------------------------------| 
D|---5-------7-------6-------4------4----------------------------------------| 
A|---x-----------------------4------2----------------------------------------| 
E|---3-----------------------2-----------------------------------------------| 


G6                D          C#7           F#      Bm 
    Everybody's   Laughin'.         Every--body's  Makin' Love. 


G6                  D 
Eye - Da - Lee It's You, I'm Thinkin' Of. 

  
I don't know *exactly* that C#7 is called but thats the chord. 



************************************ 

| /  Slide up 
| x  Dead note 

************************************ 
		  

Full key step upFull key step up
Half key step upHalf key step up
Half key step downHalf key step down
Full key step downFull key step down
hide glossary

See also:

tabs Jason Mraz - 93 Million Miles tabs My Chemical Romance - Helena tabs Bachman Turner Overdrive - You aint seen nothing yet tabs Michael Jackson - Beat It, Black Or White E Ben (riffs) tabs Ashlee Simpson - Pieces Of Me tabs Kelly Clarkson - Since Youve Been Gone
e-chords

Other versions:

tabs Steely Dan - Ida Lee
auto scroll beats size up size down change color hide chords drawings
tab show chords e-chords YouTube Clip e-chords hide all tabs e-chords go to top tab

share