Sophie Hunger

Travelogue

Sophie Hunger

tabs

by  IRONPOWER4EVER

save to print version add songbook text version e-mail correct tuner
chordsukulelecavacokeyboardtabbassdrumsharmonicaflute Guitar Pro
close

there isn't a video lesson for this song

chords

Travelogue

	  		

Verse 
   Bb          Bbmaj7      A7          Gm           
e|-------------------------------------------------| 
B|-------3-----------3-----------2-----------3-----| 
G|-----3---3-------2---2-------0---0-------3---3---| 
D|---3-------3---3-----------2-------2---5-------5-| 
A|-1-----------1---------1-0-----------------------| 
D|-------------------------------------3-----------| 

   Dm          A           C             G 
e|---------------------------------------------------| 
B|-------6-----------5------------8------------3-----| 
G|-----7---7-------6---6--------9---9--------4---4---| 
D|---7-------7---7-------7---10-------10---5-------5-| 
A|-5-------------------------------------------------| 
D|-------------5-----------8-------------3-----------| 

Chorus 
   Dm          A           G              
e|-------------------------------------------------| 
B|-------6-----------5-----------3-----------3-----| 
G|-----7---7-------6---6-------4---4-------4---4---| 
D|---7-------7---7-------7---5-------5---5-------5-| 
A|-5-----------------------------------------------| 
D|-------------5-----------3-----------3-----------| 
                                
Lyrics 

Call back the cards now and 
Lay down the pen 
Take off your glasses 
Unpack your things 
Feel with your thumbs the 
Edge of your chin and 
Hold you hands again 

Lower my head now I 
Halt and I stand I 
Follow the lines in 
The palm of my hand 
Feel with my thumbs the dust on my skin and 
No I will not dream again 

I知 ready now, I知 going now 
Nowhere 
Don稚 take me out, I知 breaking out 
In air 
I知 ready now, I知 going now 
Nowhere 

Bring me some water and 
Don稚 bring me wine 
Turn off the movies 
Let it be time 
Destroy all the airplanes I値l 
Sleep on the floor 
We must dream no more 

I知 ready now, I知 going now 
Nowhere 
Don稚 take me out, I知 breaking out 
In air 
I kill the far, I close the doors 
And I watch you 
No more 

End 
		  

Full key step upFull key step up
Half key step upHalf key step up
Half key step downHalf key step down
Full key step downFull key step down
hide glossary

See also:

tabs Sophie Hunger - Travelogue tabs Sophie Hunger - Hotel Belfort
e-chords

Other versions:

tabs Sophie Hunger - Travelogue
auto scroll beats size up size down change color hide chords drawings
tab show chords e-chords YouTube Clip e-chords hide all tabs e-chords go to top tab

share