Sophie Hunger

Hotel Belfort

Sophie Hunger

tabs

by  HUGO_RODRIGUES

save to print version add songbook text version e-mail correct tuner
chordsukulelecavacokeyboardtabbassdrumsharmonicaflute Guitar Pro
close

there isn't a video lesson for this song

chords

Hotel Belfort

	  		Sophie Hunger - Hotel Belfort 

Dropped D Tuning 

This is for the live version of the song. The studio version from the 
album '1983' differs a little bit in its song structure. 

Intro 
   F      G        B         D 
e|----------------------------------------| 
B|----------------------------------------| 
G|-0-0-00-0-0-000--0--0--0-0-0-0-000------|     x2 
D|-0-0-00-0-0-000--0--0--0-0-0-0-000------| 
A|-x-x-xx-x-x-xxx--x--x--x-x-0-0-000------| 
D|-3-3-33-5-5-555-10-10-1010-0-0-000------| 

e|----------------------------------------| 
B|----------------------------------------| 
G|-------------------0--------------------| 
D|-------------------0--------------------| 
A|-00-5-00-3-00-3s5--0--------------------| 
D|-00-5-00-3-00-3s5--0--------------------| 

Verse 
   F             D 
e|----------------------------------------| 
B|-----1-1-1-1-1-----3-3-3-3-3------------| 
G|-----0-0-0-0-0-----0-0-0-0-0------------| 
D|-----2-2-2-2-2-0h4-4-4-4-4-4------------| 
A|-0h3-3-x-x-x-x-0h5-5-5-5-5-5------------| 
D|-0h3-3-3-3-3-3-----0-0-0-0-0------------| 
                              
Chorus 
    F           Em       D 
e|----------------------------------------| 
B|-10-10-10-10--8-8-8-8--7-7-7-7----------| 
G|--x--x--x--x--x-x-x-x--x-x-x-x----------| 
D|-10-10-10-10--9-9-9-9--7-7-7-7----------| 
A|--8--8--8--8--7-7-7-7--5-5-5-5----------| 
D|-----------------------0-0-0-0----------| 
                                
Lyrics 

Don't share your lips 
I don't care who, how you kiss 
Get up and get dressed 
And bless yourself with showing nothing 

Don't spill your drinks 
I'm not impressed or and not able 
Get up and get some ink 
Write done what I feel is what I think 

No God in the world knows fear 
Giant foot prints of heaven 
Water begins nowhere 
No one is ever ready 

Take your things and have them 
Nothing else will come 
Know that you are dying 
And who you are is done 

Know that you are living 
And how many were before 
Sing for the sake of singing 
And don't think that it means more 

Broken watch doesn't stop time 
War is always a decision 
Nothing will ever be mine 
And this song is an Invention 

End 
		  

Full key step upFull key step up
Half key step upHalf key step up
Half key step downHalf key step down
Full key step downFull key step down
hide glossary

See also:

tabs Sophie Hunger - Travelogue tabs Sophie Hunger - Hotel Belfort
e-chords

Other versions:

tabs Sophie Hunger - Hotel Belfort
auto scroll beats size up size down change color hide chords drawings
tab show chords e-chords YouTube Clip e-chords hide all tabs e-chords go to top tab

share