Sentenced

The Suicider

Sentenced

tabs

save to print version add songbook text version e-mail correct tuner
chordsukulelecavacokeyboardtabbassdrumsharmonicaflute Guitar Pro
close

there isn't a video lesson for this song

chords

The Suicider

	  		 
obs.a guitarra esta afinada em ré, não tente tocar diferente 
 
INTRO 
 
Toque 2 vezes até entrar o ritmo, depois toque mais 2 vezes 
|--------------------------------------------------- 
|--------------------------------------------------- 
|--------------------------------------------------- 
|--12-----12-----12-----12-----12-----12--13--15--13 
|-----10-----10-----10----11/13---13---------------- 
|--------------------------------------------------- 
 
 
---------------------------------------------------| 
---------------------------------------------------| 
---------------------------------------------------| 
--12--10--12-----12-----12-----12--10--10--8--7--5-| 
-------------10-----10-----10--------8---8--6--5---| 
---------------------------------------------------| 
 
 
repita duas vezes (00,12-00,25) 
|----------------------------------------------------------------| 
|----------------------------------------------------------------| 
|----------------------------------------------------------------| 
|----------------------------------------------------------------| 
|--------------------------------5-5-5-5-5-5-5-5-----------------| 
|--3-3-3-3-3-3-3-6--6-6-6-6-6-6-6---------------5--5-5-5-5-5-5-5-| 
 
 
 (00,25-00,47) 
|---------------------------------------------------------------- 
|---------------------------------------------------------------- 
|---------------------------------------------------------------- 
|---------------------------------------------------------------- 
|--5-5-5-5-5-5-5-8--8-8-8-8-8-8-8-3-3-3-3-3-3-3-3-2-2-2-2-2-2-2-2 
|--3-3-3-3-3-3-3-6--6-6-6-6-6-6-6-1-1-1-1-1-1-1-1-0-0-0-0-0-0-0-0 
 
 
------------------------------------------------------------------ 
------------------------------------------------------------------ 
------------------------------------------------------------------ 
------------------------------------------------5-5-5-5-5-5------- 
-5-5-5-5-5-5-5-8--8-8-8-8-8-8-8-3-3-3-3-3-3-3-3-3-3-3-3-3-3-1-3-1- 
-3-3-3-3-3-3-3-6--6-6-6-6-6-6-6-1-1-1-1-1-1-1-1------------------- 
 
 
|---------------------------------------------------------------- 
|---------------------------------------------------------------- 
|---------------------------------------------------------------- 
|---------------------------------------------------------------- 
|--5-5-5-5-5-5-5-8--8-8-8-8-8-8-8-3-3-3-3-3-3-3-3-2-2-2-2-2-2-2-2 
|--3-3-3-3-3-3-3-6--6-6-6-6-6-6-6-1-1-1-1-1-1-1-1-0-0-0-0-0-0-0-0 
 
------------------------------------------------| 
------------------------------------------------| 
------------------------------------------------| 
------------------------------------------------| 
-5-5-5-5-5-5-5-8--8-8-8-8-8-8-8-3-3-3-3-3-3-3-3-| 
-3-3-3-3-3-3-3-6--6-6-6-6-6-6-6-1-1-1-1-1-1-1-1-| 
 
 
guitarra 2 (00,48-00,54) 
|--------------------------------| 
|--------------------------------| 
|--------------------------------| 
|--------------------------------| 
|---------------0-1-3------------| 
|--0-1-3--------------------1--3-| 
 
 
guitarra 1 (00,48-00,54) 
|--------------------| 
|--------------------| 
|--------------------| 
|--------------------| 
|--3----------5------| 
|--1----------3------| 
 
 
repita o solinho 2 vezes (00,54-01,06) 
|-------------------------| 
|--8-8-8---8--------------| 
|-------7-7-10-8-7--7-8-7-| 
|-----------------10------| 
|-------------------------| 
|-------------------------| 
 
 
repita 2 vezes (00,54-01,06) 
|-------------------------------------------------------------| 
|-------------------------------------------------------------| 
|-------------------------------------------------------------| 
|-------------------------------------------------------------| 
|--------------------------------3-3-3-3-3-3-3-3--------------| 
|--3-3-3-3-3-3-3-6--6-6-6-6-6-6-6---------------3-3-6-3-1-1-3-| 
 
 
 (01,07-01,29) 
|---------------------------------------------------------------- 
|---------------------------------------------------------------- 
|---------------------------------------------------------------- 
|---------------------------------------------------------------- 
|--5-5-5-5-5-5-5-8--8-8-8-8-8-8-8-3-3-3-3-3-3-3-3-2-2-2-2-2-2-2-2 
|--3-3-3-3-3-3-3-6--6-6-6-6-6-6-6-1-1-1-1-1-1-1-1-0-0-0-0-0-0-0-0 
 
------------------------------------------------------------------ 
------------------------------------------------------------------ 
------------------------------------------------------------------ 
------------------------------------------------5-5-5-5-5-5------- 
-5-5-5-5-5-5-5-8--8-8-8-8-8-8-8-3-3-3-3-3-3-3-3-3-3-3-3-3-3-1-3-1- 
-3-3-3-3-3-3-3-6--6-6-6-6-6-6-6-1-1-1-1-1-1-1-1------------------- 
 
 
---------------------------------------------------------------- 
---------------------------------------------------------------- 
---------------------------------------------------------------- 
---------------------------------------------------------------- 
--5-5-5-5-5-5-5-8--8-8-8-8-8-8-8-3-3-3-3-3-3-3-3-2-2-2-2-2-2-2-2 
--3-3-3-3-3-3-3-6--6-6-6-6-6-6-6-1-1-1-1-1-1-1-1-0-0-0-0-0-0-0-0 
 
 
------------------------------------------------| 
------------------------------------------------| 
------------------------------------------------| 
------------------------------------------------| 
-5-5-5-5-5-5-5-8--8-8-8-8-8-8-8-3-3-3-3-3-3-3-3-| 
-3-3-3-3-3-3-3-6--6-6-6-6-6-6-6-1-1-1-1-1-1-1-1-| 
 
 
guitarra 2 (01,30-01,35) 
|----------------------------| 
|----------------------------| 
|----------------------------| 
|------2------3--------------| 
|----2------3-----------1----| 
|--0------1----------------3-| 
 
guitarra 1 (01,30-01,35) 
|--------------------| 
|--------------------| 
|--------------------| 
|--------------------| 
|--3----------5------| 
|--1----------3------| 
 
 
repita 4 vezes (01,36-02,00) 
|-------------------------| 
|--8-8-8---8--------------| 
|-------7-7-10-8-7--7-8-7-| 
|-----------------10------| 
|-------------------------| 
|-------------------------| 
 
 
repita 4 vezes (01,30-02,00) 
|-------------------------------------------------------------| 
|-------------------------------------------------------------| 
|-------------------------------------------------------------| 
|-------------------------------------------------------------| 
|--------------------------------3-3-3-3-3-3-3-3--------------| 
|--3-3-3-3-3-3-3-6--6-6-6-6-6-6-6---------------3-3-6-3-1-1-3-| 
 
 
nessa parte eu acredito que tenha guitarra 1 com efeito e a outra na base com um efeito (02,01-02,38) 
|--------------------------------------------------- 
|--------------------------------------------------- 
|--------------------------------------------------- 
|--12-----12-----12-----12-----12-----12--13--15--13 
|-----10-----10-----10----11/13---13---------------- 
|--------------------------------------------------- 
 
 
---------------------------------------------------| 
---------------------------------------------------| 
---------------------------------------------------| 
--12--10--12-----12-----12-----12--10--10--8--7--5-| 
-------------10-----10-----10--------8---8--6--5---| 
---------------------------------------------------| 
 
 
repita 4 vezes (02,13-02,38) 
|----------------------------------------------------------------| 
|----------------------------------------------------------------| 
|----------------------------------------------------------------| 
|----------------------------------------------------------------| 
|--------------------------------5-5-5-5-5-5-5-5-----------------| 
|--3-3-3-3-3-3-3-6--6-6-6-6-6-6-6---------------5--5-5-5-5-5-5-5-| 
 
 
repita 2 vezes (02,25-02,38)                   
 
|-------------------------------------------------------------- |----| 
|----------------------11--------------13--11------11/13--11--- |----| 
|--10--10--12--10--10----12--10--10--10------12--10---------10- |-12-| 
|----12----------12--12--------12--12-------------------------- |----| 
|-------------------------------------------------------------- |----| 
|-------------------------------------------------------------- |----| 
 
 
 (02,38-02,49)   
|-------------------- |------| 
|-------------------- |------| 
|-------------------- |------| 
|------2------3------ |------| 
|----2------3-------- |-1----| 
|--0------1---------- |----3-| 
 
 
 (02,38-02,49)  
|-------------------- |-----| 
|-------------------- |-----| 
|-------------------- |-----| 
|--2----------3------ |-----| 
|--2----------3------ |-8-5-| 
|--0----------1------ |-6-3-| 
 
repita 4 vezes (02,50-03,14) 
|-------------------------| 
|--8-8-8---8--------------| 
|-------7-7-10-8-7--7-8-7-| 
|-----------------10------| 
|-------------------------| 
|-------------------------| 
 
repita 4 vezes (02,50-03,14) 
|-------------------------------------------------------------| 
|-------------------------------------------------------------| 
|-------------------------------------------------------------| 
|--------------------------------3-3-3-3-3-3-3-3--------------| 
|--5-5-5-5-5-5-5-8-8-8-8-8-8-8-8-3-3-3-3-3-3-3-3-----3------1-| 
|--3-3-3-3-3-3-3-6-6-6-6-6-6-6-6-1-1-1-1-1-1-1-1-1-1--1-0-0---| 
 
 
 (03,15-03,40) 
|----------------------------------------------------------------------------------------| 
|----------------------------------------------------------------------------------------| 
|----------------------------------------------------------------------------------------| 
|--12-----12-----12-----12-----12----12----12----12----10---10---10---10---------8-----7-| 
|-----10-----10-----10----11/13---13----13----13----13----8----8----8----8----6-6-6-5-5--| 
|----------------------------------------------------------------------------------------| 
 
 
  
ultima parte                                           L 
 
|------------------------------------------------------------- |------| 
|------------------------------------------------------------- |------| 
|------------------------------------------------------------- |------| 
|--------------------------------3-3-3-3-3-3-3-3-------------- |------| 
|--5-5-5-5-5-5-5-8-8-8-8-8-8-8-8-3-3-3-3-3-3-3-3-----3------1- |-5-5-5| 
|--3-3-3-3-3-3-3-6-6-6-6-6-6-6-6-1-1-1-1-1-1-1-1-1-1--1-0-0--- |-3-3-3| 
 
 
_______________________________________________________ 
Contribuição: Fabio Jr.Nazatto([email protected]) 

		  

See also:

tabs Isaac Albeniz - Asturias (Leyenda) tabs Iron Butterfly - IronButterfly-in A Gadda Da Vida tabs Black Crowes - Jealous Again tabs Chris Cornell - Black Hole Sun tabs Hoobastank - The Reason Acoustic tabs Black Crowes - Hard To Handle
e-chords

Other versions:

tabs Sentenced - The Suicider
auto scroll beats size up size down change color hide chords drawings
tab show chords e-chords YouTube Clip e-chords hide all tabs e-chords go to top tab

share