Sentenced

Excuse me, While I Kill Myself

Sentenced

tabs Expert expert

save to print version add songbook text version e-mail correct tuner
chordsukulelecavacokeyboardtabbassdrumsharmonicaflute Guitar Pro
close

there isn't a video lesson for this song

chords

Excuse me, While I Kill Myself

	  		 
intro: 
d|------------------------------| 
A|------8-----------------------| 
F|--7-9---7-9-10-7-10-9-7----7--| ac. guitar 
C|------------------------10----| 
G|------------------------------| 
D|------------------------------| 
 |				| 
d|------------------------------| 
A|------------------------------| 
F|--7---------------------------| 
C|--7---------------------------| 
G|--5---------------------------| 
D|------------------------------| 
 
 
 
verse: 
d|-------------------------------| 
A|-------------------------------| 
F|--7--9--10--9--7--10-9-7----7--| gtr 
C|-------------------------10----|  I 
G|-------------------------------| 
D|-------------------------------| 
 |				 | 
d|-------------------------------| 
A|-------------------------------| 
F|--7------------3---------------| gtr 
C|--7------------3------------5--|  II 
G|--5------------1------------5--| 
D|----------------------------3--| 
 |				 | 
d|-------------------------------| 
A|------8------------------------| 
F|--7-9---7-9-10-7-10-9-7----7---| ac. guitar 
C|------------------------10-----| 
G|-------------------------------| 
D|-------------------------------| 
 
 
d|------------------------------------------| 
A|------------------------------------------| 
F|-7--9--10--9--7-----9-10-9-7----7-10-9-7--| gtr 
C|-----------------10----------10-----------|  I 
G|------------------------------------------| 
D|------------------------------------------| 
 |					    | 
d|------------------------------------------| 
A|------------------------------------------| 
F|------------------------------------------| gtr 
C|-7----------------------------------------|  II 
G|-7----------------------------------------| 
D|-5----------------------------------------| 
 |				            | 
d|------------------------------------------| 
A|------8-----------------------------------| 
F|--7-9---7-9-10-7-10-9-7----7--------------| ac. guitar 
C|------------------------10----------------| 
G|------------------------------------------| 
D|------------------------------------------| 
 
 
d|-------------------------------------------| 
A|-------------------------------------------| 
F|-7--9--10--9--7----------------------------| gtr 
C|-------------------------------------------|  I 
G|-------------------------------------------| 
D|-------------------------------------------| 
 |					     | 
d|-------------------------------------------| 
A|-------------------------------------------| 
F|-7------------3----------------------------| gtr 
C|-7------------3------------5------------7--|  II 
G|-5------------1------------5------------7--| 
D|---------------------------3------------5--| 
 |					     | 
d|-------------------------------------------| 
A|------8------------------------------------| 
F|--7-9---7-9-10-7-10-9-7----7---------------| ac. guitar 
C|------------------------10-----------------| 
G|-------------------------------------------| 
D|-------------------------------------------| 
 
 
 
chorus:  (i'm not sure about the first guitar) 
d|--------------------------------------------| 
A|-----------------------------------------8--| 
F|--10-7-9-7-10-7-9-7--10-7-9-7-9----7-9-10---| gtr 
C|--------------------------------10----------|  I 
G|--------------------------------------------| 
D|--------------------------------------------| 
 |					      | 
d|--------------------------------------------| 
A|--------------------------------------------| 
F|-7------------3-----------------------------| gtr 
C|-7------------3------------5------------7---|  II 
G|-5------------1------------5------------7---| 
D|---------------------------3------------5---| 
 
 
d|--------------------------------------------| 
A|--------------------------------------------| 
F|--10-7-9-7----7-9-7--10-7-9-7-10-7-9-7------| gtr 
C|-----------10-------------------------------|  I 
G|--------------------------------------------| 
D|--------------------------------------------| 
 |					      | 
d|--------------------------------------------| 
A|--------------------------------------------| 
F|-7------------3-----------------------------| gtr 
C|-7------------3------------5------------7---|  II 
G|-5------------1------------5------------7---| 
D|---------------------------3------------5---| 
 
 
 
riff 1: 
d|--------------------------------------------| 
A|-----------------------------------------8--| 
F|--10-7-9-7-10-7-9-7--10-7-9-7-9----7-9-10---| 
C|--------------------------------10----------| 
G|--------------------------------------------| 
D|--------------------------------------------| 
 
d|----------------------------------------| 
A|----------------------------------------| 
F|--10-7-9-7----7-9-7--10-7-9-7-10-7-9-7--| 
C|-----------10---------------------------| 
G|----------------------------------------| 
D|----------------------------------------| 
 
 
 
solo: 
d|------------------------------------------8---------------------| 
A|---------8----------------------8----8-10---11-11-10-8----8-10--| 
F|--7-9-10---10-9-7-6-7-9--9-7-10---10-------------------10-------| 
C|----------------------------------------------------------------| 
G|----------------------------------------------------------------| 
D|----------------------------------------------------------------| 
 
d|------------------------------------------------------------| 
A|------------------------------------------------------------| 
F|--7-9-10-9-7-10-9----7--9-9-7----7-------------9-7-------7--| 
C|------------------10----------10---10-7-10--10-----10-10----| 
G|------------------------------------------------------------| 
D|------------------------------------------------------------| 
 
d|----------------------------------------------------------| 
A|---------8-10h11-8-------10h11p10-8h10p10-----------------| 
F|--7-9-10-----------10-9-------------------9h11p9-7h9p7----| 
C|-------------------------------------------------------7--| 
G|----------------------------------------------------------| 
D|----------------------------------------------------------| 
      bend some tones  / 
 
 
 
end: 
d|----------------------------------------?--| 
A|------8---------------------------8-----?--| 
F|--7-9---7-9-10-7-10-9-7----7--7-9---7-9-?--| gtr 
C|------------------------10-----------------|  I 
G|-------------------------------------------| 
D|-------------------------------------------| 
 |					     | 
d|-------------------------------------------| 
A|-------------------------------------------| 
F|-7-----------------------------------------| gtr 
C|-7-----------------------------------------|  II 
G|-5-----------------------------------------| 
D|-------------------------------------------| 
 
 
_______________________________________________________ 
Contribuição: Rodrigo Oki Murai([email protected]) 

		  

See also:

tabs Isaac Albeniz - Asturias (Leyenda) tabs Iron Butterfly - IronButterfly-in A Gadda Da Vida tabs Black Crowes - Jealous Again tabs Chris Cornell - Black Hole Sun tabs Hoobastank - The Reason Acoustic tabs Black Crowes - Hard To Handle
e-chords

Other versions:

tabs Sentenced - Excuse me, While I Kill Myself
auto scroll beats size up size down change color hide chords drawings
tab show chords e-chords YouTube Clip e-chords hide all tabs e-chords go to top tab

share