Sentenced

Let Go

Sentenced

tabs

save to print version add songbook text version e-mail correct tuner
chordsukulelecavacokeyboardtabbassdrumsharmonicaflute Guitar Pro
close

there isn't a video lesson for this song

chords

Let Go

	  		 
Tune down to D 
 
  (fade in) 
d|----------------------|----------------------| 
A|'---------------------|---------------------'| 
F|--6--*-----*----------|-6--*-----*-----*-----| 
C|-----0--7--0--6-------|----0--7--0--6--0-----| 
G|'----------------7--5-|-------------------7-'| 
D|----------------------|----------------------| 
 
                                              to fig. 1. 
|---------------------|---------------------|----- 
|---------------------|---------------------|----- 
|-6--*-----*----------|-6--*-----*----------|----- 
|----0--7--0--6-------|----0--7--0--7-----6-|-4~~~ 
|----------------7--5-|----------------4----|----- 
|---------------------|---------------------|----- 
 
  fig. 1. 1st (and 2nd) time w/fill 1.  3rd & ard time w/riff 1. 
|----------------------|------------------------|------------------------| 
|'---------------------|----------------2-------|------------------------| 
|----------------------|----2-----4-----------2-|-4-----4-----6-----7----| 
|---4-----4-----6----7-|-2-----2-----2-----2----|----4-----4-----4-----4-| 
|'-----4-----4-----4---|------------------------|------------------------| 
|----------------------|------------------------|------------------------| 
 
|---------------------| 
|--------------------'| 
|-6-----4-----6-----4-| 
|----4-----4-----4----| 
|--------------------'| 
|---------------------| 
 
fill 1                  x (pick and slide form up to down) 
|---|---|---|-----|--------|------|------|------| 
|---|---|---|-----|--------|------|------|------| 
|---|---|---|-----|---xxxxx|xxxxxx|xxxxxx|xxxxxx| 
|---|---|---|---4-|-4------|------|------|------| 
|---|---|---|---4-|-4------|------|------|------| 
|---|---|---|---2-|-2------|------|------|------| 
 
riff 1. 
|----------------|---------------|---------------|------------------| 
|'---------------|---------------|---------------|-----------------'| 
|----------------|---------------|---------------|------------------| 
|------4-----4---|-----2-----2---|-----1-----1---|-2-----1-----1----| 
|'---------------|-0-0---0-0---0-|-2-2---2-2---2-|---2-2---2-2---2-'| 
|--2-2---2-2---2-|---------------|---------------|------------------| 
 
riff 2.a 
|-----------------------|------------------|----------|------------| 
|-----------------------|------------------|----------|------------| 
|-----------------------|------------------|----------|------------| 
|---4-4-x-x-x--x-x--x-x-|-x--x-x-x--2------|-4-4--xxx-|-xx--2------| 
|---4-4-x-x-x--x-x--x-x-|-x--x-x-x----x----|-4-4--xxx-|-xx----x-3~-| 
|---2-2-x-x-x--x-x--x-x-|-x--x-x-x------3~-|-2-2--xxx-|-xx---------| 
 
                                --------------|   -----| 
                                |1                |2 
|----------|----------|-------|-----------------|-------| 
|----------|----------|-------|----------------'|-------| 
|----------|----------|-------|-----------------|-------| to fill 2. 
|-4-4--xxx-|-9--------|-7-----|-----7-----------|-(7)---| 
|-4-4--xxx-|-7----74-|-5-----|-5-5---4--------'|-(5)---| 
|-2-2--xxx-|----------|-------|---------7-5-4~--|-------| 
 
 fill 2. 
|--------|------------|--------|---------------| 
|--------|------------|--------|---------------| 
|--6-----|-(6)---4--7-|-6------|---------------| 
|--6-----|-(6)---4--7-|-6------|-----7---------| 
|--4-----|-(4)---2--5-|-4------|-5-5---4-------| 
|--------|------------|--------|---------7-5-4-| 
 
riff 3. 
|---------------|---------------|---------------|---------------| 
|---------------|---------------|---------------|---------------| 
|---------------|---------------|---------------|---------------| 
|-----4-----4---|-----2-----2---|-----4-----4---|-----7-------9-| 
|---------------|-0-0---0-0---0-|-2-2---2-2---2-|-5-5---5-7-7---| 
|-2-2---2-2---2-|---------------|---------------|---------------| 
 
|---------------|---------------|---------------|---------------| 
|---------------|---------------|---------------|---------------| 
|---------------|---------------|---------------|---------------| 
|-----4-----4---|-----2-----2---|-----9-----9---|-----7---------| 
|---------------|-0-0---0-0---0-|-7-7---7-7---7-|-5-5---4-------| 
|-2-2---2-2---2-|---------------|---------------|---------7-5-4-| 
 
 fig 2. (w/riff 3.) 
|-------------|------------|------|-----------------------| 
|-------------|------------|------|-----------------------| 
|-------------|--------4-6-|-4~---|--------------------4--| 
|---4-4--6-7~-|---7-7------|------|--7--7--6--4--6--7-----| 
|-------------|------------|------|-----------------------| 
|-------------|------------|------|-----------------------| 
 
|-------------|-----------|--------------|-----------------------| 
|-------------|-----------|-5------------|-----------------------| 
|-------------|-------4-6-|--------------|-----------------------| 
|---4-4--6-7~-|--7-7------|-----7--6--4--|-7--7--6--4--6--7--6--| 
|-------------|-----------|--------------|-----------------------| 
|-------------|-----------|--------------|-----------------------| 
 
riff 2.b 
|-----------------|       |------------|-------| 
|-----------------|       |------------|-------| first time,  goal 1. 
|-------<><>------| etc.  |------------|-------| 
|--4-4--xxxx-<><>-|       |-9------*-*-|-7-----| second time, goal 2. 
|--4-4-------xxxx-|       |-7----74-4-|-5-----| 
|--2-2------------|       |------------|-------| 
 
- fill 2. 
 
- fig 2. w/riff 3.  x2 
 
- riff 2.a  with guitar solo 
 
  fig.3    second time w/fig.4 
|---------------|---------------|---------------|---------------| 
|'--------------|---------------|---------------|---------------| 
|-6-*---*-------|-6-*---*---*---|-6-*---*-------|-6-*---*---*---| 
|---0-7-0-6-----|---0-7-0-6-0---|---0-7-0-6-----|---0-7-0-6-0---| 
|'----------7-5-|-------------7-|-----------7-5-|-------------7-| 
|---------------|---------------|---------------|---------------| 
 
|--------------|----------------|--------------|----------------| 
|--------------|----------------|--------------|---------------'| 
|-6------------|-6--------------|-6------------|-6--------------| 
|----7---6-----|-----7----6-----|----7---6-----|-----7---6------| 
|--*---*---7---|---*---*----*-7-|--*---*---7---|---*---*---*-7-'| 
|--7---7-----7-|---7---7----7---|--7---7-----7-|---7---7---7----| 
 
 
fig.4 
|----------------|-----------------|----------------|-----------------| 
|----------------|-----------------|----------------|-----------------| 
|-6h7-7-7-6-7-9--|-6h7-7-7-7---6-9-|-6h7-7-7-6-7-9--|-6h7-7-7-7---6-9-| 
|----------------|-----------9-----|----------------|-----------9-----| 
|----------------|-----------------|----------------|-----------------| 
|----------------|-----------------|----------------|-----------------| 
 
|----------------|----------------|----------------|----------------| 
|----------------|----------------|----------------|----------------| 
|-2h4-4-4-4-4-4--|-2h4-4-4-4-4-4--|-2h4-4-4-4-4-4--|-2h4-4-4-4-4-4--| 
|----------------|----------------|----------------|----------------| 
|----------------|----------------|----------------|----------------| 
|----------------|----------------|----------------|----------------| 
 
 
- fill. 2 
 
- fig 2. w/riff 3. 
 
- fig 1. w/riff 1. 
 
  w/riff 1.0 
|-----------------|-----------------|-----------------|---------------| 
|-----------------|-----------2-----|-----------------|---------------| 
|-----------------|---2---4-------2-|-----------------|---------------| 
|---4---4---6---7-|-2---2---2---2---|-4---4---6---7---|-6---4---6---4-| 
|-----4---4---4---|-----------------|---4---4---4---4-|---4---4---4---| 
|-----------------|-----------------|-----------------|---------------| 
 
|---------------|-----------------|-------------------|----------------- 
|---------------|-----------2-----|-------------------|----------------- 
|---------------|---2---4-------2-|-4---4---6---7--6~-|-4---6-4--------- 
|-4---4---6---7-|-2---2---2---2---|---4---4---4-------|---7-----7-6-4~~~ 
|---4---4---4---|-----------------|-------------------|----------------- 
|---------------|-----------------|-------------------|----------------- 
SOLO 
|-hold-----------------------------------------------------------------------| 
|-17~-----17-17-17-16-16-16---------14-17b19r17-14---------------------------| 
|-16~(18)-16-16-16-16-16-16-14~--14----------------16b18r-14--16-14p16h14-13-| 
|----------------------------------------------------------------------------| 
|----------------------------------------------------------------------------| 
|----------------------------------------------------------------------------| 
                          A.H 
|----------------------------------------------------------------------------| 
|-------------------------15-------------------------------------------------| 
|-14-13p14h13-------------------6-7-9-7-6--6-7----6--------------------------| 
|--------------16-14-12------------------------9----9-7--9-7-6---------------| 
|--------------------------------------------------------------9-------------| 
|----------------------------------------------------------------------------| 
 T        T        T        T        T        T        T        T 
|21p17p14-21p17p14-21p17p14-21p17p14-22p17p14-22p17p14-22p17p14-22p17p14-----| 
|----------------------------------------------------------------------------| 
|----------------------------------------------------------------------------| 
|----------------------------------------------------------------------------| 
|----------------------------------------------------------------------------| 
|----------------------------------------------------------------------------| 
  T        T        T        T        T        T        T        T 
|----------------------------------------------------------------------------| 
|-21p17p14-21p17p14-21p17p14-21p17p14-22p17p14-22p17p14-22p17p14-22p17p14----| 
|----------------------------------------------------------------------------| 
|----------------------------------------------------------------------------| 
|----------------------------------------------------------------------------| 
|----------------------------------------------------------------------------| 
 
|----------------------------------------------------------------------------| 
|-15-14----------14-15-17-15-14-15--15-14-----14-----------------------------| 
|-------16-14-16--------------------------16-----16-14--16-14-13-------------| 
|----------------------------------------------------------------14/16-------| 
|----------------------------------------------------------------------------| 
|----------------------------------------------------------------------------| 
 
|----------------------------------------------------------------------------| 
|----------------------------------------------------------------------------| 
|-14p11p13p11---14p11p13p11----14p11p13p11----14p11p13p11------16b18r16-14-13| 
|------------14-------------14-------------14-------------14-----------------| 
|----------------------------------------------------------------------------| 
|----------------------------------------------------------------------------| 
                  A.H 
|----------------------------------------------------------------------------| 
|-----------------15---------------------------------------------------------| 
|-14-13----------------------------------------------------------------------| 
|-------16-14-12-------------------------------------------------------------| 
|----------------------------------------------------------------------------| 
|----------------------------------------------------------------------------| 
 
_______________________________________________________ 
Contribuição: Fabio Jr.Nazatto([email protected]) 

		  

Full key step upFull key step up
Half key step upHalf key step up
Half key step downHalf key step down
Full key step downFull key step down
hide glossary

See also:

tabs Isaac Albeniz - Asturias (Leyenda) tabs Iron Butterfly - IronButterfly-in A Gadda Da Vida tabs Black Crowes - Jealous Again tabs Chris Cornell - Black Hole Sun tabs Hoobastank - The Reason Acoustic tabs Black Crowes - Hard To Handle
e-chords

Other versions:

tabs 12-Stones - Let go tabs Sentenced - Let Go tabs dEUS - Let Go tabs Adema - Let Go tabs Chris Tomlin - Let God Arise
auto scroll beats size up size down change color hide chords drawings
tab show chords e-chords YouTube Clip e-chords hide all tabs e-chords go to top tab

share