Sentenced

Bleed

Sentenced

tabs

save to print version add songbook text version e-mail correct tuner
chordsukulelecavacokeyboardtabbassdrumsharmonicaflute Guitar Pro
close

there isn't a video lesson for this song

chords

Bleed

	  		 
Intro 
|-----------------|-------------------|-----------------|------------------| 
|-----------------|-------------------|-----------------|------------------| 
|-----------------|-------------------|-----------------|------------------|Gtr 
|-2-2-2-2-0-2-3-2-|-(2)-2-2-2-0-2-3-2-|-2-2-2-2-0-2---5-|-x-3-x-2-x-0-x-2--| I 
|-0-0-0-0-0-0-0-0-|-(0)-0-0-0-0-0-0-0-|-3-3-3-3-3-3-3---|------------------| 
|-----------------|-------------------|-----------------|------------------| 
|                 |                   |             .   | .   .   .   .    | 
|                 |                   |                 |                  | 
|-----------------|-------------------|-----------------|------------------| 
|-----------------|-------------------|-----------------|------------------| 
|-----------------|-------------------|-----------------|------------------|Gtr 
|-2-2-2-2-2-2-2-2-|--2--2-2-2-2-2-2-2-|-5-5-5-5-5-5-5-7-|-7-7-7-7-7-7-7-7--| II 
|-0-0-0-0-0-0-0-0-|--0--0-0-0-0-0-0-0-|-3-3-3-3-3-3-3-5-|-5-5-5-5-5-5-5-5--| 
|-----------------|-------------------|-----------------|------------------| 
 
 
|-----------------|-------------------|-----------------|------------------| 
|-----------------|-------------------|-----------------|------------------| 
|-----------------|-------------------|-----------------|------------------|Gtr 
|-2-2-2-2-0-2-3-2-|-(2)-2-2-2-0-2-3-2-|-2-2-2-2-0-2---5-|-x-3-x-2-x-0-x-2--| I 
|-0-0-0-0-0-0-0-0-|-(0)-0-0-0-0-0-0-0-|-3-3-3-3-3-3-3---|------------------| 
|-----------------|-------------------|-----------------|------------------| 
|                 |                   |             .   | .   .   .   .    | 
|                 |                   |                 |                  | 
|-----------------|-------------------|-----------------|------------------| 
|-----------------|-------------------|-----------------|------------------| 
|-----------------|-------------------|-----------------|------------------|Gtr 
|-2-2-2-2-2-2-2-2-|--2--2-2-2-2-2-2-2-|-5-5-5-5-5-5-5-7-|------------------| II 
|-0-0-0-0-0-0-0-0-|--0--0-0-0-0-0-0-0-|-3-3-3-3-3-3-3-5-|------------------| 
|-----------------|-------------------|-----------------|------------------| 
 
 
Riff A 
|----------------|-------------------|----------------|-------------------| 
|----------------|-------------------|----------------|-------------------| 
|----------------|-------------------|----------------|-------------------|Gtr 
|-2--2-2-0-2-3-2-|-(2)-2-2-2-0-2-3-2-|-2--2-2-0-2---5-|--x--3-x-2-x-0-x-2-| I 
|-0--0-0-0-0-0-0-|-(0)-0-0-0-0-0-0-0-|-3--3-3-3-3-3---|-------------------| 
|----------------|-------------------|----------------|-------------------| 
|                |                   |            .   |  .    .   .   .   | 
|                |                   |                |                   | 
|----------------|-------------------|----------------|-------------------| 
|----------------|-------------------|----------------|-------------------| 
|----------------|-------------------|----------------|-------------------|Gtr 
|-2--2-2-0-2-0-2-|-(2)-2-2-2-0-2-0-2-|-5--5-5-5-5-x-7-|-(7)-7-7-7-5-7-5-7-| II 
|-0--0-0-0-0-0-0-|-(0)-0-0-0-0-0-0-0-|-3--3-3-3-3-x-5-|-(5)-5-5-5-5-5-5-5-| 
|----------------|-------------------|----------------|-------------------| 
 
 
|----------------|-------------------|----------------| 
|----------------|-------------------|----------------| 
|----------------|-------------------|----------------|Gtr 
|-2--2-2-0-2-3-2-|-(2)-2-2-2-0-2-3-2-|-2--2-2-0-2---5-| I 
|-0--0-0-0-0-0-0-|-(0)-0-0-0-0-0-0-0-|-3--3-3-3-3-3---| 
|----------------|-------------------|----------------| 
|                |                   |            .   | 
|                |                   |                | 
|----------------|-------------------|----------------| 
|----------------|-------------------|----------------| 
|----------------|-------------------|----------------|Gtr 
|-2--2-2-0-2-0-2-|-(2)-2-2-2-0-2-0-2-|-5--5-5-5-5-x-7-| II 
|-0--0-0-0-0-0-0-|-(0)-0-0-0-0-0-0-0-|-3--3-3-3-3-x-5-| 
|----------------|-------------------|----------------| 
 
 
|-------------------|-------------------| 
|-------------------|-------------------| 
|-------------------|-------------------|Gtr 
|--x--3-x-2-x-0-x-5-|--x--3-x-2-x-0-x-2-| I 
|-------------------|-------------------| 
|-------------------|-------------------| 
|  .    .   .   .   |  .    .   .   .   | 
|                   |                   | 
|-------------------|-------------------| 
|-------------------|-------------------| 
|-------------------|-------------------|Gtr 
|-(7)-7-7-7-5-7-x-7-|-(7)-7-7-7-5-7-5-7-| II 
|-(5)-5-5-5-5-5-x-5-|-(5)-5-5-5-5-5-5-5-| 
|-------------------|-------------------| 
 
 
Riff B (Verse) 
|-----------------|-----------------|-----------------|-----------------| 
|-----------------|-----------------|-----------------|-----------------| 
|-----------------|-----------------|-----------------|-----------------|Gtrs 
|-2-2-2-2-2-2-2-2-|-2-2-2-2-2-2-2-2-|-5-5-5-5-5-5-5-5-|-7-7-7-----------|I&II 
|-0-0-0-0-0-0-0-0-|-0-0-0-0-0-0-0-0-|-3-3-3-3-3-3-3-3-|-5-5-5-3-5-6-5-3-| 
|-----------------|-----------------|-----------------|-----------------| 
  . . . . . . . .   . . . . . . . .   . . . . . . . .   . . . . . . . .  
 
|-----------------|-----------------|-----------------|-----------------| 
|-----------------|-----------------|-----------------|-----------------| 
|-----------------|-----------------|-----------------|---7-----7---7-7-|Gtrs 
|-2-2-2-2-2-2-2-2-|-2-2-2-2-2-2-2-2-|-5-5-5-5-5-5-5-5-|-5-5-5-5-5-5-5-5-|I&II 
|-0-0-0-0-0-0-0-0-|-0-0-0-0-0-0-0-0-|-3-3-3-3-3-3-3-3-|-3---------------| 
|-----------------|-----------------|-----------------|-----------------| 
  . . . . . . . .   . . . . . . . .   . . . . . . . .   .   . .   .  
 
|---------------|-----------------|-----------------|-----------------| 
|---------------|-----------------|-----------------|-----------------| 
|---------------|-----------------|-----------------|-----------------|Gtrs 
|---2-2-2-2-2-2-|-2-2-2-2-2-2-2-2-|-5-5-5-5-5-5-5-5-|-5---------------|I&II 
|---0-0-0-0-0-0-|-0-0-0-0-0-0-0-0-|-3-3-3-3-3-3-3-3-|-3/5-5-3-5-6-5-3-| 
|---------------|-----------------|-----------------|-----------------| 
    . . . . . .   . . . . . . . .   . . . . . . . .  
 
 
Riff C (Pre-Chorus) 
|-----------------|-----------------|--------------------|---------------------| 
|-----------------|-----------------|--------------------|---------------------| 
|-----------------|---------7-5-4-5-|-(5)--5-5-5-5-4-2-5-|-(5)--5-5-5-5-4-2-4--|Gtrs 
|--------------5--|------5--5-3-2-3-|-(3)--3-3-3-3-2-0-3-|-(3)--3-3-3-3-2-0-2--|I&II 
|------7--2222-2--|-3333-3----------|--------------------|---------------------| 
|-5555-5----------|-----------------|--------------------|---------------------| 
  ....    ....      ....        . 
 
|-----------------|-----------------|--------------------| 
|-----------------|-----------------|--------------------| 
|-----------------|---------7-5-4-5-|-(5)--5-5-5-5-5-5-4-|Gtrs 
|--------------5--|------5--5-3-2-3-|-(3)--3-3-3-3-5-3-2-|I&II 
|------7--2222-2--|-3333-3----------|--------------------| 
|-5555-5----------|-----------------|--------------------| 
  ....    ....      ....        .                . . . . 
 
|----------------------|--------------------------| 
|-3--3-3-3-3-3-3-3-3-3-|-3-3-3-3-3-3-3-3-3-3-3-3--| 
|-2--2-2-2-0-2-2-2-2-2-|-0-2-2-2-2-2-0-2-2-2-2-2--|Gtrs 
|-0--0-0-0-0-0-0-0-0-0-|-0-0-0-0-0-0-0-0-0-0-0-0--|I&II 
|----------------------|--------------------------| 
|----------------------|--------------------------| 
 
 
Riff D (Chorus) 
|-8--8-8-8-8-8-7-|-(7)-7-7-7-7-7-7-7-|-5--5-5-5-5-5---|--------------------| 
|-8--8-8-8-8-8-5-|-(5)-5-5-5-5-5-5-5-|-5--5-5-5-5-5-6-|-(6)-6-6-6-6-6-6-6--| 
|----------------|-------------------|--------------5-|-(5)-5-5-5-5-5-5-5--|Gtr 
|----------------|-------------------|----------------|--------------------| I 
|----------------|-------------------|----------------|--------------------| 
|----------------|-------------------|----------------|--------------------| 
|                |                   |                |                    | 
|----------------|-------------------|----------------|---------3-x-1-x-0--| 
|-1--1-1-0-1-x-0-|-(0)-0-x-1-x-0-x-0-|-1--1-1-0-1-x-1-|-(1)-1-x-1-x-1-x-1--| 
|-0--0-0-0-0-x-0-|-(0)-0-x-0-x-0-x-0-|-2--2-2-2-2-x-2-|-(2)-2-x-2-x-2-x-2--|Gtr 
|-2--2-2-2-2-x-2-|-(2)-2-x-2-x-2-x-0-|-2--2-2-2-2-x-3-|-(3)-3-x-3-x-3-x-3--| II 
|-3--3-3-3-3-x-2-|-(2)-2-x-2-x-2-x---|-0--0-0-0-0-x---|--------------------| 
|--------------0-|-(0)-0-x-0-x-0-x---|----------------|--------------------| 
 
Repeat Riff D 
 
 
Riff B w/Fill 1 
 
Fill 1 
|-----------------|-------------------| 
|-----------------|-------------------| 
|-----------------|-------------------|Gtr 
|-7---------------|-(7)---------------|III 
|-----------------|-------------------| 
|-----------------|-------------------| 
 
Riff C 
Riff D (4 times) 
Intro 
 
 
Gtr Solo 1  w/Riff B (Gtr II part only) 
|-----------------------|-------------------------------|--------------------17-| 
|-----------------------|-------------------------------|-------20---20------17-| 
|-----------------------|----------------17----17-19fb--|-(19)-------19r-p17----|Gtr 
|----19p17----17h19-----|-------19p17-------19----------|--*--------------------|III 
|----------19-----------|-------------19----------------|-----------------------| 
|-----------------------|-------------------------------|-----------------------| 
 
 * hold bend 
 
|-(17)----------------------|------------------------|-----------------------| 
|-(17)----------------------|------------------------|-----------------------| 
|------17-19fb--17----------|------------------------|-----------------------|Gtr 
|------------------19-17-19-|-(19)-------------------|--------------------19-|III 
|---------------------------|------0-18-0-17-0-15h17-|-15h17p15--------------| 
|---------------------------|------------------------|----------17----------| 
 
 
|----------------------------|----------------------|------------------------| 
|----------------------------|----------------------|-22---------------------| 
|----------------------------|-------------------21-|----19-21---------------|Gtr 
|-(19)-17-19-19---17-19-21hb-|-21p19-17-19----------|----------22-21-1917---|III 
|----------------------------|----------------------|------------------------| 
|----------------------------|----------------------|------------------------| 
 
 
Riff E 
|-----------------|----------------|-----------------|---------------------| 
|-----------------|----------------|-----------------|---------------------| 
|-----------------|-------------5--|-----------------|---------------------|Gtr 
|-----7---5h7---7-|-----7---5h7----|-----5---5-----4-|-0-0-4-0-4-5-4h5p4p0-| I 
|-0-0---0-----0---|-0-0---0--------|-3-3---3---3-3---|---------------------| 
|-----------------|----------------|-----------------|---------------------| 
| . .   .     .   | . .   .        | . .   .   . .   |                     | 
|                 |                |                 |                     | 
|-----------------|----------------|-----------------|---------------------| 
|-----------------|----------------|-----------------|---------------------| 
|-----------------|----------------|-----------------|---------------------|Gtr 
|-2---------------|-(2)------------|-5-5-------------|---------------------| II 
|-0---------------|-(0)------------|-3-3-------------|---------------------| 
|-----------------|----------------|-----------------|---------------------| 
|                 |                |                 |                     | 
|-----------------|----------------|-----------------|---------------------| 
|-----------------|----------------|-----------------|---------------------| 
|-----------------|----------------|-----------------|---------------------|Gtr 
|-19--------------|-(19)-----------|-19-------------|---------------------|III 
|-----------------|----------------|-----------------|---------------------| 
|-----------------|----------------|-----------------|---------------------| 
                                      ^ 
 
|-----------------|-------------------|-----------------|---------------------| 
|-----------------|-------------------|-----------------|---------------------| 
|-----------------|-----5h7-7fr-5h7p5-|-----------------|---------------------|Gtr 
|-----7---5h7---7-|---7---------------|-----5---5-----4-|-0-0-4-0-4-5-4h5p4p0-| I 
|-0-0---0-----0---|-0-----------------|-3-3---3---3-3---|---------------------| 
|-----------------|-------------------|-----------------|---------------------| 
  . .   .     .     .       ^           . .   .   . .  
 
 
|-----------------|-----------------|-----------------|---------------------| 
|-----------------|-----------------|-----------------|---------------------| 
|-----------------|-------------5---|-----------------|---------------------|Gtr 
|-----7---5h7---7-|-----7---5h7-----|-----5---5-----4-|-0-0-4-0-4-5-4h5p4p0-| I 
|-0-0---0-----0---|-0-0---0---------|-3-3---3---3-3---|---------------------| 
|-----------------|-----------------|-----------------|---------------------| 
| . .   .     .   | . .   .         | . .   .   . .   |                     | 
|                 |                 |                 |                     | 
|-----------------|-----------------|-----------------|---------------------| 
|-----------------|-----------------|-----------------|---------------------| 
|-----------------|-----------------|-----------------|---------------------|Gtr 
|-----2---0h2---7-|---5---0---2---0-|-----2---0h2---7-|---5---0---2-----0---| II 
|-0-0-0-0-0---0-0-|-0-0-0-0-0-0-0-0-|-3-3-3-3-3---3-5-|-5-5-5-0-0---0-------| 
|-----------------|-----------------|-----------------|---------------------| 
  . .   .     .     .   .   .   .     . .   .     .     .   .   .   . 
 
 
|-----------------|-------------------|-----------------|-------------------| 
|-----------------|-------------------|-----------------|-------------------| 
|-----------------|-----5h7-7fr-5h7p5-|-----------------|-------------------|Gtr 
|-----7---5h7---7-|---7---------------|-----5---5-----7-|-(7)-7-7-7-7-7-7-7-| I 
|-0-0---0-----0---|-0-----------------|-3-3---3---3-3-5-|-(5)-5-5-5-5-5-5-5-| 
|-----------------|-------------------|-----------------|-------------------| 
| . .   .     .   | .       ^         | . .   .   . .   |                   | 
|                 |                   |                 |                   | 
|-----------------|-------------------|-----------------|-------------------| 
|-----------------|-------------------|-----------------|-------------------| 
|-----------------|-------------------|-----------------|-------------------|Gtr 
|-----2---0h2---7-|---5---0-----2---0-|-----2---0h2---7-|-(7)-7-7-7-7-7-7-7-| II 
|-0-0-0-0-0---0-0-|-0-0-0-0-0---0-0-0-|-3-3-3-3-3---3-5-|-(5)-5-5-5-5-5-5-5-| 
|-----------------|-------------------|-----------------|-------------------| 
 
 
Riff D (4 times) 
 
Gtr Solo 2  w/Riff D (2 times, Gtr II part only) 
|----------------|-------------------|-----------------|-------------------| 
|----------------|-------------------|-----------------|-------------------| 
|-5--5-5-4-5-7-5-|-(5)---5-4-5-4-----|-----------------|-------------------|Gtr 
|----------------|---------------7-5-|-/7--7-5-7-5-2-3-|-(3)---3-2-3-2-----|III 
|----------------|-------------------|-----------------|---------------3---| 
|----------------|-------------------|-----------------|-------------------| 
 
|-------------------|--------------------|----------------|-------------------| 
|-------------------|--------------------|----------------|-------------------| 
|-7fb------7fr-p54-|-(4)h5---/7---5---4-|-5--5-4-5-4-----|--4--5-7-5-4-5-4---|Gtr 
|-------------------|--------------------|------------7-5-|-----------------5-|III 
|-------------------|--------------------|----------------|-------------------| 
|-------------------|--------------------|----------------|-------------------| 
 
 
Ending 
|-----------------|-------------------|-----------------| 
|-----------------|-------------------|-----------------| 
|-----------------|-------------------|-----------------|Gtrs 
|-2-2-2-2-0-2-3-2-|-(2)-2-2-2-0-2-3-0-|-2-2-2-2-0-2-3-2-|I&II 
|-0-0-0-0-0-0-0-0-|-(0)-0-0-0-0-0-0-0-|-0-0-0-0-0-0-0-0-| 
|-----------------|-------------------|-----------------| 
 
 
_______________________________________________________ 
Contribuição: Rodrigo Oki Murai([email protected]) 

		  

Full key step upFull key step up
Half key step upHalf key step up
Half key step downHalf key step down
Full key step downFull key step down
hide glossary

See also:

tabs Isaac Albeniz - Asturias (Leyenda) tabs Iron Butterfly - IronButterfly-in A Gadda Da Vida tabs Black Crowes - Jealous Again tabs Chris Cornell - Black Hole Sun tabs Hoobastank - The Reason Acoustic tabs Black Crowes - Hard To Handle
e-chords

Other versions:

tabs Sentenced - Bleed tabs Soulfly - Bleed tabs Cold - Bleed tabs Limp Bizkit - Bleed tabs Jimmy Eat World - Bleed American tabs Jimmy Eat World - Bleed American (ver. 2)
auto scroll beats size up size down change color hide chords drawings
tab show chords e-chords YouTube Clip e-chords hide all tabs e-chords go to top tab

share