Scorpions

home > Scorpions

Believe In Love Tab

Scorpions

Difficulty: AdvancedAdvanced

by Evans+Hossel

tuner correct add songbook print version text version save to e-mail
chordsukulelecavacokeyboardtabbassdrumsharmonicsflute Guitar Pro
chords

Believe In Love

  		Esse É O Riff Inicial da Música,perfeito galera,qq dúvida me mandem um e-mail... 
 
 
 
E|------------------------------------------------------------| 
B|--4-6s8---8-6-4-3s-6~----6-8s9-8~-----8-6-4----4-----4-8-6~-| 
G|--------------------------------------------5~---5-3--------| 
D|------------------------------------------------------------| 
A|------------------------------------------------------------| 
E|------------------------------------------------------------| 
 
E|-------------------------------------------------------------------| 
B|--4-6s8---11-8-6-4-3s-6~----6-8s9-8~-----8-6----4-----4-----4-8-6~-| 
G|---------------------------------------------5~---5-3--------------| 
D|-------------------------------------------------------------------| 
A|-------------------------------------------------------------------| 
E|-------------------------------------------------------------------| 

	  

Search Paypal
auto scroll beats size up size down change color hide chords drawings
tab show chords e-chords YouTube Clip e-chords hide all tabs e-chords go to top tab