Scorpions

home > Scorpions

Loving you Sunday morning Tab

Scorpions

Difficulty: ExpertExpert

by Evans+Hossel

tuner correct add songbook print version text version save to e-mail
chordsukulelecavacokeyboardtabbassdrumsharmonicsflute Guitar Pro
chords

Loving you Sunday morning

Year: 1979 - Album: Bad For Good: The Very Best of Scorpions

(Meine / Rarebell / Schenker)

  		{Riff 1} 
e|-----------------------------------------| 
B|-----------3---5-----3-----4---4-----5~--| 
G|-------2-------------------2---2-----2~--| 
D|---4-------------------------------------| 
A|-----------------------------------------| 
E|-----------------------------------------| 
 
{Riff 2} 
     A     A7sus4  D/A       A 
e|---5-----3-------2---2------------------------| 
B|---5-----3-------3---3-----2------------------| 
G|---2-----2-------2---2-----2------------------| 
D|-----------------0---0-----2--------------2---| 
A|---------------------------0-----0---3b---0---| 
E|----------------------------------------------| 
 | 
e|----------------------------------------------------| 
B|----------------------------------------------------| 
G|----------------------------------------------------| 
D|----------------------------------------------------| 
A|---0--0--0--0--0--0--0--0--0--0--0--0--0--0--0--0---| 
E|----------------------------------------------------| 
 
{Riff 3} 
     A     A7sus4  D/A       A         Asus4 A 
e|---5-----3-------2---2--------------------------| 
B|---5-----3-------3---3-----2-----2----3----2----| 
G|---2-----2-------2---2-----2-----2----2----2----| 
D|-----------------0---0-----2-----2----2----2----| 
A|---------------------------0-----0----0----0----| 
E|------------------------------------------------| 
 | 
e|----------------------------------------------------| 
B|----------------------------------------------------| 
G|----------------------------------------------------| 
D|----------------------------------------------------| 
A|---0--0--0--0--0--0--0--0--0--0--0--0--0--0--0--0---| 
E|----------------------------------------------------| 
 
{Riff 4} 
     A     A7sus4    D/A              A 
e|---5-----3---------2---2----------------| 
B|---5-----3---------3---3------------2~--| 
G|---2-----2---------2---2------------2~--| 
D|-------------------0---0------------2~--| 
A|------------------------------------0~--| 
E|----------------------------------------| 
 | 
e|----------------------------------------| 
B|----------------------------------------| 
G|----------------------------------------| 
D|---------------------------------2--2~--| 
A|---0--0--0--0--0--0--0--0--0--0--0--0~--| 
E|----------------------------------------| 
 
{Riff 5} 
     C 
e|-----------------------------------------------------------------------| 
B|-------1-------3---3-------------1---3-----------------1-------3---3---| 
G|-----------0-----------------0-----------0-----------------0-----------| 
D|---------------------------------------------2-------------------------| 
A|---3---------------------3-------------------------3-------------------| 
E|-----------------------------------------------------------------------| 
 | 
e|------------------------------------------------------------------------------| 
B|------------------------------------------------------------------------------| 
G|---5~---------------------------------------5---5---5~-------------------5----| 
D|---5~---------------------------------------5---5---5~-------------------5----| 
A|---3~---------------------------------------3---3---3~-------------------3----| 
E|------------------------------------------------------------------------------| 
 
 
{Riff 6} 
e|---5-----3--------------------| 
B|---5-----3--------------------| 
G|---2-----2---------------4~---| 
D|-------------------------3~---| 
A|------------------------------| 
E|------------------------------| 
 | 
e|------------------------------| 
B|------------------------------| 
G|-------------------------4~---| 
D|--2--2--2--2--2--2--2----3~---| 
A|--0--0--0--0--0--0--0---------| 
E|------------------------------| 
 
{Riff 7} 
    G7/A 
e|-------------------| 
B|---------------3---| 
G|-----------4-------| 
D|-------3-----------| 
A|---0---------------| 
E|-------------------| 
 
{Riff 8} 
e|------------------------------------------------------| 
B|----10------------------------------------------------| 
G|----9------7~----(7)\-----4---4---4---4---4---4---4---| 
D|----7------6~----(6)\-----3---3---3---3---3---3---3---| 
A|----0-------------------------------------------------| 
E|------------------------------------------------------| 
 
{Riff 9} 
e|-----------------| 
B|----10-----------| 
G|----9------7~----| 
D|----7------6~----| 
A|----0------------| 
E|-----------------| 
 
{Riff 10} 
e|---------------------------------| 
B|---------------------------------| 
G|---------------------------------| 
D|---------------2-----------------| 
A|---2---2---2-------5---3---2-----| 
E|---------------------------------| 
 
{Riff 11} 
e|-------------------------------------------------| 
B|-------------------------------------------------| 
G|-------------------------------------------------| 
D|---2-----2---------------2-----2-----------------| 
A|---0-----0-----0---3-----0-----0----/5---3---2---| 
E|-------------------------------------------------| 
 
{Fill 1} 
e|----------------------------------------------------------------------| 
B|----------------------------------------------------------------------| 
G|---4b6---4---2b---4---2b4---------------------------------------------| 
D|----------------------------2-----------------------------------------| 
A|--------------------------------4---2b4---2---0---0---0---0---0---0---| 
E|----------------------------------------------------------------------| 
           SH  SH   SH  SH    SH  PH  PH    PH  PH  PH  PH  PH  PH  PH   (SH = semi-harmonics) 
                                                                         (PH = pitch-harmonics) 
 
{Fill 2} 
e|----------------------------------------------------------| 
B|------------------8b10---5--------------------------------| 
G|---7b9r7---7p5---------------8---7---5--------------------| 
D|-----------------------------------------7---5------------| 
A|-------------------------------------------------0---3~---| 
E|----------------------------------------------------------| 
     PH             SH     SH  SH  SH  SH  SH  SH  SH 
     |----4x----| 
 
{Fill 3} 
e|------------------------------------5------------5-------------------------| 
B|---------------------------------------------------------------------------| 
G|---4b6r4---4p2---4---4b6---4---2-------2--2--2------2--2~------------------| 
D|------------------------------------------------------------4p2------------| 
A|-----------------------------------------------------------------3--2--0---| 
E|---------------------------------------------------------------------------| 
 
{Fill 4} 
e|---8------------------------------------------------| 
B|---8---6b8~-----------------------------------------| 
G|---------------7b9r7---7p5---7---7b9---5---7---5~---| 
D|----------------------------------------------------| 
A|----------------------------------------------------| 
E|----------------------------------------------------| 
 
{Fill 5} 
e|------------------------------------------| 
B|---5----3-----2---3---2---3---2-------2---| 
G|---5b---4---------4---2---4---2-------2---| 
D|----------------------------------4---2---| 
A|------------------------------------------| 
E|------------------------------------------| 
 
{Fill 6} 
e|-------------------------5----------------------| 
B|------------------------------------5-----------| 
G|---7b9r7---7b---8b10---------5br----------------| 
D|----------------------------------------4-------| 
A|--------------------------------------------0---| 
E|------------------------------------------------| 
 
 
 
Song: 
 
{Riff 1} 2x 
 
{Riff 2} 1x 
{Riff 3} 1x 
{Riff 2} 1x 
{Riff 4} 1x 
 
{Riff 2} 1x 
Working hard to get it all for you 
{Riff 3} 1x 
Everyday and night 
{Riff 2} 1x 
I give you all I've got to give 
Take it all 
 
{Riff 3} 1x with {Fill 1} 
 
{Riff 2} 1x 
Love I know that you're feelin' blue 
{Riff 3} 1x 
Lonely deep inside 
{Riff 2} 1x   
'Cause I know how it feels to be alone  
 
{Riff 4} 1x with {Fill 2} 
 
{Riff 5} 1x 
Loving you Sunday morning 
You were on my mind love everyday 
 
{Riff 2} 1x 
{Riff 4} 1x 
 
{Riff 5} 1x 
Loving you Sunday morning 
Your love makes me fly so far away 
 
{Riff 2} 1x 
{Riff 6} 1x 
 
{Riff 2} 1x 
{Riff 3} 1x 
{Riff 2} 1x 
{Riff 4} 1x 
 
{Riff 2} 1x 
People tell me that I'm gonna lose you 
{Riff 3} 1x 
Our love will die 
{Riff 2} 1x 
So tell me is it true right or wrong 
 
{Riff 3} 1x with {Fill 3} 
 
{Riff 2} 1x 
I never ever wanna lose your love 
{Riff 3} 1x 
So I will change my life 
{Riff 2} 1x 
Believe in me my love 
{Riff 4} 1x      {Fill 4} 
I'm coming home  
 
{Riff 5} 1x 
Loving you Sunday morning 
You were on my mind love everyday 
 
{Riff 2} 1x 
{Riff 4} 1x 
 
{Riff 5} 1x 
Loving you Sunday morning 
Your love makes me fly so far away  
 
{Riff 2} 1x 
{Riff 6} 1x 
{Riff 7} 1x 
 
 
{Riff 8} 2x com solo: 
e|--------------------------------------5h7/8--5-------------------------------------------| 
B|--10~~-------6p5--------------5--6h8------------8--6-----10~~---------12b14r12---12--10--| 
G|-------10~--------7p5\4h5h7-------------------------------------10~----------------------| 
D|-----------------------------------------------------------------------------------------| 
A|-----------------------------------------------------------------------------------------| 
E|-----------------------------------------------------------------------------------------| 
 
                                                       {Riff 9}          {Riff 10} 
e|----------------------------------------------------------------13b15--13~--12----------------| 
B|--------------10----------10-------------------------10~~-----------------------15-13-12------| 
G|--12--10--12------10--12------12--10--12--10\9-------------10~----------------------------14~-| 
D|------------------------------------------------12--------------------------------------------| 
A|----------------------------------------------------------------------------------------------| 
E|----------------------------------------------------------------------------------------------| 
 
 
{Riff 11} 6x com solo: 
e|--15b17--15b17~--15b17~--15b17~~--15b16--15b17~~----15b17r15--15--12--15~--12--15p12--15---| 
B|-------------------------------------------------------------------------------------------| 
G|-------------------------------------------------------------------------------------------| 
D|-------------------------------------------------------------------------------------------| 
A|-------------------------------------------------------------------------------------------| 
E|-------------------------------------------------------------------------------------------| 
 
e|--15--15p12-----------------------------------------------------------------------------------| 
B|-------------15b17--15b17~--15b17r15---(15)p13--15--13--15~-----------------------------------| 
G|---------------------------------------------------------------14-----------------------------| 
D|-------------------------------------------------------------------14--13--12------12~--(12)\-| 
A|-------------------------------------------------------------------------------15-------------| 
E|----------------------------------------------------------------------------------------------| 
 
e|-------------------------------------------------------------------------------------------| 
B|----------------------8---------------8-----8-------10p8h10p8-----10b12----8b10r8----------| 
G|--8h9p8p7--------8h9-----9--8p7----------9-----9p7-------------9-------------------9--8\7--| 
D|-----------10--------------------10--------------------------------------------------------| 
A|-------------------------------------------------------------------------------------------| 
E|-------------------------------------------------------------------------------------------| 
   |----4x-----| 
 
                                                               (fazer riff 8 de novo) 
e|--------------------------------------------------------------------------| 
B|--------------------------------------------------------------------------| 
G|--------------------------------------------------------------------------| 
D|--10--7--10p8--7----------------------------------------------------------| 
A|------------------10---7\6----7---6---5-------6---5-------5---5b7---5~~---| 
E|------------------------------------------8-----------8-------------------| 
                                    SH  SH  SH  SH  SH  SH  SH (SH = semi-harmonics) 
 
 
{Riff 8} 2x com solo: 
e|--------------------------------------5h7/8--5-------------------------------------------| 
B|--10~~-------6p5--------------5--6h8------------8--6-----10~~---------12b14r12---12--10--| 
G|-------10~--------7p5\4h5h7-------------------------------------10~----------------------| 
D|-----------------------------------------------------------------------------------------| 
A|-----------------------------------------------------------------------------------------| 
E|-----------------------------------------------------------------------------------------| 
 
                                                 
e|----------------------------------------------------------------13b15--13~~---| 
B|--------------10-------------------------------------10~~---------------------| 
G|--12--10--12------10--12b14---12--10--12--10\9--------------10~---------------| 
D|------------------------------------------------12----------------------------| 
A|------------------------------------------------------------------------------| 
E|------------------------------------------------------------------------------| 
 | 
e|------------------------------------------------------------------------------| 
B|-----------------------------------------------------10-----------------------| 
G|------------------------------------------------------9----7~---(7)\-----4~~--| 
D|------------------------------------------------------7----6~---(6)\-----3~~--| 
A|------------------------------------------------------0-----------------------| 
E|------------------------------------------------------------------------------| 
 
 
{Riff 7} 1x 
 
{Riff 2} 1x 
Working hard to get it all for you 
{Riff 3} 1x 
Everyday and night 
{Riff 2} 1x 
I give you all I've got to give 
Take it all 
 
{Riff 3} 1x with {Fill 5} 
 
{Riff 2} 1x 
I never ever wanna lose your love 
{Riff 3} 1x 
So I will change my life 
{Riff 2} 1x 
Believe in me my love 
{Riff 4} 1x with {Fill 6} 
I'm coming home  
 
{Riff 5} 1x 
Loving you Sunday morning 
You were on my mind love everyday 
 
{Riff 2} 1x 
{Riff 4} 1x 
 
{Riff 5} 1x 
Loving you Sunday morning 
Your love makes me fly so far away  
 
{Riff 2} 1x 
{Riff 6} 1x 
{Riff 7} 1x 
 
 
{Riff 8} 2x com solo: 
e|--------------------------------------5h7/8--5------------------------13b15r13---13--12--10--| 
B|--10~~-------6p5--------------5--6h8------------8--6-----10~~--------------------------------| 
G|-------10~--------7p5\4h5h7-------------------------------------10~--------------------------| 
D|---------------------------------------------------------------------------------------------| 
A|---------------------------------------------------------------------------------------------| 
E|---------------------------------------------------------------------------------------------| 
 
                                                  {Riff 9}           {Riff 10} 
e|------12--10------------------------------------17~~--13---20b22---20~--19--17--15-----------| 
B|--13----------13--12--10--13--12--10------------------------------------------------17--17~--| 
G|--------------------------------------12--10-------------------------------------------------| 
D|---------------------------------------------------------------------------------------------| 
A|---------------------------------------------------------------------------------------------| 
E|---------------------------------------------------------------------------------------------| 
 
{Riff 11} com solo: 
e|--15b17-----15b17r15---(15)p12--------12---------------------------------------------------| 
B|---------------------------------15~------13-----------------------------------------------| 
G|---------------------------------------------------5--7b9--7b9r7~---7p5---7b9--5--------5--| 
D|------------------------------------------------7----------------------------------7\------| 
A|-------------------------------------------------------------------------------------------| 
E|-------------------------------------------------------------------------------------------| 
   |-10x-| 
 
e|------------------5--------------8---------------------5---------5-----------------------| 
B|---------8b10~-------5---8b10~------8p5--8--8b10~---5-----8b10------8--5-----5-----------| 
G|-----5--------------------------------------------------------------------8-----8--7--5--| 
D|--7--------------------------------------------------------------------------------------| 
A|-----------------------------------------------------------------------------------------| 
E|-----------------------------------------------------------------------------------------| 
 
e|---------------------------------------------------------------------------------------------| 
B|---------------------------------------------------------------------------------------------| 
G|--5--7b9r7-----7--5--------------------------------------------------------------------------| 
D|---------------------7--5-----------------------------------------------------------7--------| 
A|---------------------------7--5b7--5b7------5----------3--5/7--7--7p5--5--5b7---3~-----6--5--| 
E|-----------------------------------------8-----8---5-----------------------------------------| 
 
e|------------------------------------------------------------------------------------------| 
B|------------------------------------------------------------------------------------------| 
G|--------------------------------------------0--2p0--2--5b7---5~--5b7---2--5--2---5---2----| 
D|-----------------------------------------2------------------------------------------------| 
A|--3-------------0--0--3--5b7r5--3---------------------------------------------------------| 
E|-----5--3--3b5---------------------5~-----------------------------------------------------| 
 
e|--------------------------------------------5-------------------8--8---10--9---5~---8-----| 
B|--------3--5--3---5b7r5-------------8b10-------5--8b10~---8b10----------8--8-----------10-| 
G|--2--5--------------------5~-----5--------------------------------------------------------| 
D|------------------------------7-----------------------------------------------------------| 
A|------------------------------------------------------------------------------------------| 
E|------------------------------------------------------------------------------------------| 
 
e|--10b12r10p8--10-----------------------10b12r10---10p8--10-------8---10---| 
B|------------------10\----------------------------------------10-----------| 
G|-----------------------9---12p9--12---------------------------------------| 
D|--------------------------------------------------------------------------| 
A|--------------------------------------------------------------------------| 
E|--------------------------------------------------------------------------| 

	  

Full key step upFull key step up
Half key step upHalf key step up
Half key step downHalf key step down
Full key step downFull key step down
Search Paypal
auto scroll beats size up size down change color hide chords drawings
tab show chords e-chords YouTube Clip e-chords hide all tabs e-chords go to top tab