Santana

home > Santana

Samba pa ti Tab

Santana

Difficulty: BeginnerBeginner

by Baquit

tuner correct add songbook print version text version save to e-mail
chordsukulelecavacokeyboardtabbassdrumsharmonicsflute Guitar Pro
chords

Samba pa ti

Year: 1990 - Album: Ultimate Santana

  		----------------3---|--------|2----3-2|------| 
------------3-5---3-|------3-|--------|5-----|  
-----2 4 5----------|----4---|--------|------| X2
--------------------|--------|--------|------|
--------------------|--------|--------|------|
--------------------|--------|--------|------|

--7----5------------|--5---5-|--7---5-------|-----5--------|
---------8-----5----|--------|----------8--5|---------5----| 
--------------------|--------|--------------|------------7-|
--------------------|--------|--------------|--------------|
--------------------|--------|--------------|--------------|
--------------------|--------|--------------|--------------|

--------------------|--------|----------2|--7--5--5-------------------| 
-5----3-----------3-|--------|----3---3--|------------8--8--5--8--/-10|  
---------5---4--5---|---2----|-4---------|----------------------------|
--------------------|--------|-----------|----------------------------|
--------------------|--------|-----------|----------------------------|
--------------------|--------|-----------|----------------------------|

----------------3---|--------|2----3-2|------| 
------------3-5---3-|------3-|--------|5-----|  
-----2 4 5----------|----4---|--------|------| X2
--------------------|--------|--------|------|
--------------------|--------|--------|------|
--------------------|--------|--------|------|

--7----5------------|--5---5-|--7---5-------|-----5--------|
---------8-----5----|--------|----------8--5|---------5----| 
--------------------|--------|--------------|------------7-|
--------------------|--------|--------------|--------------|
--------------------|--------|--------------|--------------|
--------------------|--------|--------------|--------------|

--------------------|--------|----------2|--7--5--5-------------------| 
-5----3-----------3-|--------|----3---3--|------------8--8--5--8--/-10|  
---------5---4--5---|---2----|-4---------|----------------------------|
--------------------|--------|-----------|----------------------------|
--------------------|--------|-----------|----------------------------|
--------------------|--------|-----------|----------------------------|


-----------------7--7-|----10----|--------7--5--------|--------------5-----|
---8--8--10-----------|----------|----9---------8---7-|--7---8-------------|
----------------------|--------|--------------|----------------------------|
----------------------|--------|--------------|----------------------------| X2
----------------------|--------|--------------|----------------------------|  
----------------------|--------|--------------|----------------------------|




--------------------5--|---7----|---------------------5--|-----------------------------|
--------------5--8-----|--------|-------------5---8------|-------------5---------------|  
---7---7--7------------|--------|----7--7--7-------------|------7----------------------|
-----------------------|--------|------------------------|-----------------------------|
-----------------------|--------|------------------------|-----------------------------| IMPROVISE UNTIL FADE =)
-----------------------|--------|------------------------|-----------------------------|


	  

Search Paypal
auto scroll beats size up size down change color hide chords drawings
tab show chords e-chords YouTube Clip e-chords hide all tabs e-chords go to top tab