Ryan Bandong

Sewn Woven

Ryan Bandong

tabs

by  LUCICAMARGO

save to print version add songbook text version e-mail correct tuner
chordsukulelecavacokeyboardtabbassdrumsharmonicaflute Guitar Pro
close

there isn't a video lesson for this song

chords

Sewn Woven

	  		
 
 Standard Tuning 

Intro: D - GM7sus2 

e----0h2--0h2--| 
B----3----3----| 
G----0h2--0h2--|     x2 
D----0----0----| 
A----x----x----| 
E----x----3----| 


Verse: D - Gm7sus2 - Bm7 - Asus4 - Gm7sus2 

e----2----2----x----x----0h2--| 
B----3----3----3----3----3----| 
G----2----2----2----2----0h2--|  x2 
D----0----0----0----2----0----| 
A----x----x----2----0----x----| 
E----x----3----x----x----3----| 

Chorus: Bm7 - Asus4 - F#m7/b13 - Gm7sus2 

e----x----x----x----2----| 
B----3----3----3----3----| 
G----2----2----2----2----|  x2 
D----0----2----2----0----| 
A----2----0----x----x----| 
E----x----x----2----3----| 

-INTRO- 
-VERSE- 
-Chorus- 

Chorus End (I'll see you soon~~): D - Am  Gm7sus2 

e----2----x----2----| 
B----3----1----3----| 
G----2----2----2----|    x2 
D----0----2----0----| 
A----x----0----x----| 
E----x----x----3----| 

(...dressed in my best just for you~~): Bm7 - C#m5+add/b9 - D - END ON .Gm7sus2 

e----x----x----2----| 
B----3----3----3----| 
G----2----2----2----|    x3 
D----0----2----0----| 
A----2----4----x----| 
E----x----x----x----| 

e----2----| 
B----3----| 
G----2----|    x2 Hold 
D----0----| 
A----x----| 
E----3----| 

End (...i'll see you soon~~): D - Am9  - Gm7sus2 (HOLD LAST NOTE, end on D) 

e----2----x----2----| 
B----3----0----3----| 
G----2----5----2----|    x6 
D----0----5----0----| 
A----x----0----x----| 
E----x----x----3----| 
		  

Full key step upFull key step up
Half key step upHalf key step up
Half key step downHalf key step down
Full key step downFull key step down
hide glossary

See also:

tabs Porta - La Bella Y La Bestia tabs Misc Computer Games - Mii Channel Music tabs Dragon Ball GT - Sorriso Resplandecente tabs Misc Computer Games - Plants Vs Zombies 2 - Wild West Theme tabs Misc Television - Doctor Who - Claras Theme tabs Misc Computer Games - Chrono Trigger - Corridors Of Time
e-chords

Other versions:

tabs Ryan Bandong - Sewn Woven
auto scroll beats size up size down change color hide chords drawings
tab show chords e-chords YouTube Clip e-chords hide all tabs e-chords go to top tab

share