Misc Computer Games

Undertale - Main Theme (acoustic)

Misc Computer Games

tabs

by  JOAOEWERTON

save to print version add songbook text version e-mail correct tuner
chordsukulelecavacokeyboardtabbassdrumsharmonicaflute Guitar Pro
close

there isn't a video lesson for this song

chords

Undertale - Main Theme (acoustic)

	  		 
 

e|---0-------------------------------0-------------------2-0-----0-| 
B|-----3---2--2--3-----3---2--2--3-----3---2--2--3-----3------3----| 
G|-2-----2-----------2---2---------2-----2-----------2-------------| 
D|-----------------------------------------------------------------| 
A|-----------------------------------------------------------------| 
E|-----------------------------------------------------------------| x2 

e|---0-------------------------------0-------------------2-0-----0-| 
B|-----3---2--2--3-----3---2--2--3-----3---2--2--3-----3------3----| 
G|-2-----2-----------2---2---------2-----2-----------2-------------| 
D|---0---0---0---0---0---0---0---0---0---0---0---0---0---0---0---0-| 
A|-----------------------------------------------------------------| 
E|-----------------------------------------------------------------| x2 

e|---0-------------------------------0-------------------2-0-----0-|  
B|-----3---2--2--3-----3---2--2--3-----3---2--2--3-----3------3----|  
G|-2-----2-----------2---2---------2-----2-----------2-------------|  
D|---0---0---0---0---0---0---0---0---0---0---0---0---0---0---0---0-|  
A|-----------------------------------------------------------------|  
E|-3---3---3---3---3---3---3---3---2---2---2---2---2---2---2---2---|  
                                                                     x2 
e|---0-------------------------------0-------------------2-0-----0-|  
B|-----3---2--2--3-----3---2--2--3-----3---2--2--3-----3------3----|  
G|-2-----2-----------2---2---------2-----2-----------2-------------|  
D|---0---0---0---0---0---0---0---0---0---0---0---0---0---0---0-----|  
A|---------------------------------0---0---0---0---2---2---2---2---|  
E|-3---3---3---3---3---3---3---3-----------------------------------|  


switch to  
 

e|---0-------------------------------0-------------------2-0-----0-|  
B|-----3---2--2--3-----3---2--2--3-----3---2--2--3-----3------3----|  
G|-2-----2-----------2---2---------2-----2-----------2-------------|  
D|---0---0---0---0---0---0---0---0---0---0---0---0---0---0---0---0-|  
A|-----------------------------------------------------------------|  
E|-3---3---3---3---3---3---3---3---2---2---2---2---2---2---2---2---|  
                                                                     
e|---0-------------------------------0-------------------2-0-----0-|  
B|-----3---2--2--3-----3---2--2--3-----3---2--2--3-----3------3----|  
G|-2-----2-----------2---2---------2-----2-----------2-------------|  
D|---0---0---0---0---0---0---0---0---0---0---0---0---0---0---0-----|  
A|---------------------------------0---0---0---0---2---2---2---2---|  
E|-3---3---3---3---3---3---3---3-----------------------------------| x2 
		  

See also:

tabs Misc Computer Games - Undertale - Main Theme (acoustic) tabs Andy James - Separation tabs Misc Computer Games - Chrono Trigger - Corridors Of Time tabs Misc Computer Games - Resident Evil 4 - Save Theme tabs Misc Computer Games - Far Cry 5 - Now That This Old World Is Ending tabs Misc Computer Games - The Witcher 3 Ost - Lullaby Of Woe A Night To Remember Song (acoustic)
e-chords

Other versions:

tabs Misc Computer Games - Undertale - Main Theme (acoustic)
auto scroll beats size up size down change color hide chords drawings
tab show chords e-chords YouTube Clip e-chords hide all tabs e-chords go to top tab

share