Rodrigo y Gabriela

Tamacun

Rodrigo y Gabriela

tabs Expert expert

by  BARTIMAEUS_16

save to print version add songbook text version e-mail correct tuner
chordsukulelecavacokeyboardtabbassdrumsharmonicaflute Guitar Pro
close

there isn't a video lesson for this song

chords

Tamacun

	  		This is a very difficult song but I wrote it as accurately as I could. It might be  
difficult to read some of Gabriela's part because I tried to get the two of them  
to match up.  
By the way, whenever you see  
e|-S-|  
B|-S-|  
G|-S-|  
D|-S-|  
A|-S-|  
E|-S-|  
it means you slap your guitar. If you see  
e|-x-|  
B|-x-|  
G|-x-|  
D|-x-|  
A|-x-|  
E|-x-|  
it means you strike the strings when they're muted. There is a difference.  
You may have to lasten to the song to get some of the strumming techniques aswell. It's complicated.  
(0:00)  
 |Rodrigo         |           |                |                    |  
e|8-----8-7---7-10|8-----8-10-8-7----|8-----8-7---7-10|8-----8-10-8-12-10-8|  
B|-10-10---8-8----|-10-10--------10-8|-10-10---8-8----|-10-10--------------|  
G|---9------9-----|---9--------------|---9------9-----|---9----------------|  
D|----------------|------------------|----------------|--------------------|  
A|----------------|------------------|----------------|--------------------|  
E|----------------|------------------|----------------|--------------------|  
 |Gabriela        |           |                |                    |  
e|----------------|------------------|----------------|--------------------|  
B|----------------|------------------|----------------|--------------------|  
G|----------------|5-------9---------|----------------|5-------9-----------|  
D|7-------5-------|5-------9---------|7-------5-------|5-------9-----------|  
A|7-------5-------|3-------7---------|7-------5-------|3-------7-----------|  
E|5-------3-------|------------------|5-------3-------|--------------------|  
  
(0:07)  
 |Rodrigo         |           |                |                    |  
e|8-----8-7---7-10|8-----8-10-8-7----|8-----8-7---7-10|8-----8-8-7----10-12|  
B|-10-10---8-8----|-10-10--------10-8|-10-10---8-8----|-10-10-----8-10-----|  
G|---9------9-----|---9--------------|---9------9-----|---9----------------|  
D|----------------|------------------|----------------|--------------------|  
A|----------------|------------------|----------------|--------------------|  
E|----------------|------------------|----------------|--------------------|  
 |Gabriela        |           |                |                    |  
e|-----S-------S--|-----S-------S----|-----S-------S--|-----S-------S------|  
B|-----S-------S--|-----S-------S----|-----S-------S--|-----S-------S------|  
G|-----S-------S--|5-xx-S-x9-xxxS-xx-|-----S-------S--|5-xx-S-x9-xxxS-xx---|  
D|7-xx-S-x5-xxxSxx|5-xx-S-x9-xxxS-xx-|7-xx-S-x5-xxxSxx|5-xx-S-x9-xxxS-xx---|  
A|7-xx-S-x5-xxxSxx|3-xx-S-x7-xxxS-xx-|7-xx-S-x5-xxxSxx|3-xx-S-x7-xxxS-xx---|  
E|5-xx-S-x3-xxxSxx|-----S-------S----|5-xx-S-x3-xxxSxx|-----S-------S------|  
  
(0:15)  
 |Rodrigo         |           |                |                    |  
e|8-----8-7---7-10|8-----8-10-8-7----|8-----8-7---7-10|8-----8-10-8-12-10-8|  
B|-10-10---8-8----|-10-10--------10-8|-10-10---8-8----|-10-10--------------|  
G|---9------9-----|---9--------------|---9------9-----|---9----------------|  
D|----------------|------------------|----------------|--------------------|  
A|----------------|------------------|----------------|--------------------|  
E|----------------|------------------|----------------|--------------------|  
 |Gabriela        |           |                |                    |  
e|---S---S---S---S|---S---S---S---S--|---S---S---S---S|---S---S---S---S----|  
B|---S---S---S---S|111S-11S---S---S--|---S---S---S---S|111S-11S---S---S----|  
G|---S---S-44S-44S|000S-00S-11S-11S--|---S---S-44S-44S|000S-00S-11S-11S----|  
D|777S-77S-55S-55S|222S-22S-22S-22S--|777S-77S-55S-55S|222S-22S-22S-22S----|  
A|777S-77S-55S-55S|333S-33S-22S-22S--|777S-77S-55S-55S|333S-33S-22S-22S----|  
E|555S-55S-33S-33S|---S---S---S---S--|555S-55S-33S-33S|---S---S---S---S----|  
  
(0:22)  
 |Rodrigo         |                  |                |                    |  
e|8-----8-7---7-10|8-----8-10-8-7----|8-----8-7---7-10|8-----8-8-7---------|  
B|-10-10---8-8----|-10-10--------10-8|-10-10---8-8----|-10-10-----10-8-----|  
G|---9------9-----|---9--------------|---9------9-----|---9-----------10-9-|  
D|----------------|------------------|----------------|--------------------|  
A|----------------|------------------|----------------|--------------------|  
E|----------------|------------------|----------------|--------------------|  
 |Gabriela        |                  |                |                    |  
e|---S---S---S---S|---S---S---S---S--|---S---S---S---S|---S---S---S---S----|  
B|---S---S---S---S|111S-11S---S---S--|---S---S---S---S|111S-11S---S---S----|  
G|---S---S-44S-44S|000S-00S-11S-11S--|---S---S-44S-44S|000S-00S-11S-11S----|  
D|777S-77S-55S-55S|222S-22S-22S-22S--|777S-77S-55S-55S|222S-22S-22S-22S----|  
A|777S-77S-55S-55S|333S-33S-22S-22S--|777S-77S-55S-55S|333S-33S-22S-22S----|  
E|555S-55S-33S-33S|---S---S---S---S--|555S-55S-33S-33S|---S---S---S---S----|  
  
(0:29)  
 |Rodrigo          |                    |                 |  
e|12---------------|--------------------|12-------------12|  
B|--13--12-13-15-13|-13-12-12h13--------|--13--12-13-15---|  
G|----14-----------|-14---------14-13-14|----14-----------|  
D|-----------------|-14-----------------|-----------------|  
A|-----------------|--------------------|-----------------|  
E|-----------------|--------------------|-----------------|  
 |Gabriela         |                    |                 |  
e|S55-S5--S33-S3---|S----S----S44----S5-|S55-S5--S33-S3---|  
B|S55-S5--S33-S3---|S55--S5---S55----S5-|S55-S5--S33-S3---|  
G|S55-S5--S44-S4---|S55--S5---S44----S5-|S55-S5--S44-S4---|  
D|S---S---S---S----|S55--S5---S------S--|S---S---S---S----|  
A|S---S---S---S----|S----S----S------S--|S---S---S---S----|  
E|S---S---S---S----|S----S----S------S--|S---S---S---S----|  
  
 |Rodrigo          |  
e|--15-13-12-10----|  
B|-------------13--|  
G|12-------------14|  
D|-----------------|  
A|-----------------|  
E|-----------------|  
 |Gabriela         |  
e|S---S---S44--S5--|  
B|S55-S5--S55--S5--|  
G|S55-S5--S44--S5--|  
D|S55-S5--S----S---|  
A|S---S---S----S---|  
E|S---S---S----S---|  
  
(0:37)  
 |Rodrigo          |                    |                     |  
e|12---------------|--------------------|------12--------15-15|  
B|--13--12-13-15-13|-13-12-12h13--------|----13--15-13-12-----|  
G|----14-----------|-14---------14-13-14|--14-----------------|  
D|-----------------|-14-----------------|14-------------------|  
A|-----------------|--------------------|---------------------|  
E|-----------------|--------------------|---------------------|  
 |Gabriela         |                    |                     |  
e|S55-S5--S33-S3---|S----S----S44----S5-|S55-S5--S33---S3-----|  
B|S55-S5--S33-S3---|S55--S5---S55----S5-|S55-S5--S33---S3-----|  
G|S55-S5--S44-S4---|S55--S5---S44----S5-|S55-S5--S44---S4-----|  
D|S---S---S---S----|S55--S5---S------S--|S---S---S-----S------|  
A|S---S---S---S----|S----S----S------S--|S---S---S-----S------|  
E|S---S---S---S----|S----S----S------S--|S---S---S-----S------|  
  
 |Rodrigo                  |  
e|--13-13--12-12--10-10----|  
B|---------------------9-10|  
G|14-----12-----10---------|  
D|-------------------------|  
A|-------------------------|  
E|-------------------------|  
 |Gabriela                 |  
e|S------S------S44----S5--|  
B|S55----S5-----S55----S5--|  
G|S55----S5-----S44----S5--|  
D|S55----S5-----S------S---|  
A|S------S------S------S---|  
E|S------S------S------S---|  
  
(0:45)  
 |Rodrigo          |                    |                 |  
e|12---------------|--------------------|12-------------12|  
B|--13--12-13-15-14|-12-13-12h13--------|--13--12-13-15---|  
G|----14-----------|------------14-12-14|----14-----------|  
D|-----------------|14------------------|-----------------|  
A|-----------------|--------------------|-----------------|  
E|-----------------|--------------------|-----------------|  
 |Gabriela         |                    |                 |  
e|-----------------|--------------------|-----------------|  
B|-----------------|--------------------|-----------------|  
G|----0-------0----|----0-------0-------|----0-------0----|  
D|--2---2---2----2-|--2---2---2----2----|--2---2---2----2-|  
A|0-------2--------|3-------2-----------|0-------2--------|  
E|-----------------|--------------------|-----------------|  
  
  
 |Rodrigo          |  
e|--15-13-12-10----|  
B|-------------13--|  
G|12-------------14|  
D|-----------------|  
A|-----------------|  
E|-----------------|  
 |Gabriela         |  
e|-----------------|  
B|-----------------|  
G|----0-------0----|  
D|--2---2---2----2-|  
A|3-------2--------|  
E|-----------------|  
  
(0:52)  
e|12---------------|--------------------|------12--------15-15|  
B|--13--12-13-15-14|-12-13-12h13--------|----13--15-13-12-----|  
G|----14-----------|------------14-12-14|--14-----------------|  
D|-----------------|14------------------|14-------------------|  
A|-----------------|--------------------|---------------------|  
E|-----------------|--------------------|---------------------|  
 |Gabriela         |                    |  
e|-----------------|--------------------|---------------------|  
B|-----------------|--------------------|---------------------|  
G|----0-------0----|----0-------0-------|----0-------0--------|  
D|--2---2---2----2-|--2---2---2----2----|--2---2---2----2-----|  
A|0-------2--------|3-------2-----------|0-------2------------|  
E|-----------------|--------------------|---------------------|  
  
 |Rodrigo                  |  
e|--13-13--12-12--10-10----|  
B|---------------------9-10|  
G|14-----12-----10---------|  
D|-------------------------|  
A|-------------------------|  
E|-------------------------|  
 |Gabriela                 |  
e|---------------------xxxx|  
B|---------------------xxxx|  
G|0--------------------xxxx|  
D|2--------------------xxxx|  
A|3--------------------xxxx|  
E|---------------------xxxx|  
  
(0:59)  
 |Rodrigo         |                  |                |                    |  
e|-8-8--8-8-77-77-|-8-8--8-8-77-77---|-8-8--8-8-77-77-|-8-8--8-8-1212-1212-|  
B|1010-1010-88-88-|1010-1010-99-99---|1010-1010-88-88-|1010-1010-1313-1313-|  
G|-9-9--9-9-77-77-|-9-9--9-9-99-99---|-9-9--9-9-77-77-|-9-9--9-9-1212-1212-|  
D|----------------|------------------|----------------|--------------------|  
A|----------------|------------------|----------------|--------------------|  
E|----------------|------------------|----------------|--------------------|  
 |Gabriela        |                  |                |                    |  
e|----S-------S---|----S-------S-----|----S-------S---|----S---------S-----|  
B|----S-------S---|1-11S-11----S-----|----S-------S---|1-11S--11-----S-----|  
G|----S---4-44S-44|0-00S-001-11S-11--|----S---4-44S-44|0-00S--001--11S-11--|  
D|7-77S-775-55S-55|2-22S-222-22S-22--|7-77S-775-55S-55|2-22S--222--22S-22--|  
A|7-77S-775-55S-55|3-33S-332-22S-22--|7-77S-775-55S-55|3-33S--332--22S-22--|  
E|5-55S-553-33S-33|----S-------S-----|5-55S-553-33S-33|----S---------S-----|  
  
(1:07)  
 |Rodrigo         |                  |                |                    |  
e|-8-8--8-8-77-77-|-8-8--8-8-77-77---|-8-8--8-8-77-77-|-8-8--8-8-44444444--|  
B|1010-1010-88-88-|1010-1010-99-99---|1010-1010-88-88-|1010-1010-55555555--|  
G|-9-9--9-9-77-77-|-9-9--9-9-99-99---|-9-9--9-9-77-77-|-9-9--9-9-44444444--|  
D|----------------|------------------|----------------|--------------------|  
A|----------------|------------------|----------------|--------------------|  
E|----------------|------------------|----------------|--------------------|  
 |Gabriela        |                  |                |                    |  
e|----S-------S---|----S-------S-----|----S-------S---|----S---------S-----|  
B|----S-------S---|1111S-11----S-----|----S-------S---|1111S--11-----S-----|  
G|----S---4444S-44|0000S-001111S-11--|----S---4444S-44|0000S--0011111S-11--|  
D|7777S-775555S-55|2222S-222222S-22--|7777S-775555S-55|2222S--2222222S-22--|  
A|7777S-775555S-55|3333S-332222S-22--|7777S-775555S-55|3333S--3322222S-22--|  
E|5555S-553333S-33|----S-------S-----|5555S-553333S-33|----S---------S-----|  
  
That's it for the moment. I might finish it up in a while. Good luck playing it (you'll need it).  
  


		  

See also:

tabs Rihanna - Music of the sun tabs Ne-yo - So sick tabs Eric Johnson - SRV tabs Plain White T's - Write You a Song tabs The Speaks - High tabs Santa Esmeralda - You!re my everything/intro
e-chords

Other versions:

tabs Rodrigo y Gabriela - Tamacun
auto scroll beats size up size down change color hide chords drawings
tab show chords e-chords YouTube Clip e-chords hide all tabs e-chords go to top tab

share